Six Feet Under - The Enemy Inside Chords & Tabs

 

The Enemy Inside Chords & Tabs

Six Feet Under Chords & Tabs

Version: 1 Type: Bass Tab 0 ratings
1 star 2 stars 3 stars 4 stars 5 stars
comments

The Enemy Inside Bass Tab

   
Here's the Bass Tab for The Enemy Inside but the Guitar Tab is the same
if you take these root notes as a root/fifth power chord.
 
This isn't the order but there's only two riffs so you figure it out.
 
Tune down a whole step to D.
 
F -----------------------------------------------------------------
C -----------------------------------------------------------------
G -----------------------------------------------------------------
D -0-0-0-0-0-0-1-1-1-1-1-1-3-3-3-3-0-0-0-0-0-0-1-1-1-1-1-1-3-3-3-3-
 
F ----------------------------------------||
C ----------------------------------------||
G ----------------------------------------||
D -0-0-0-0-0-1-1-1-1-1-3-3-3-3-0----------||
 
F ---------------------------------------------------------------||
C ---------------------------------------------------------------||
G ------4----------5--------------------6-5-----------------4-3--||
D -3---------4----------0-0-0-0-0-0-0-0-----0-0-0-0-0-0-0-0------||
 
There's both the riffs of the entire song.

By:  John McClanahan
[ Tab from: http://www.guitartabs.cc/tabs/s/six_feet_under/the_enemy_inside_btab.html ]
Comments