Six Feet Under - Sick And Twisted Chords & Tabs

 

Sick And Twisted Chords & Tabs

Six Feet Under Chords & Tabs

Version: 1 Type: Bass Tab 0 ratings
1 star 2 stars 3 stars 4 stars 5 stars
comments

Sick And Twisted Bass Tab

I know this tab is not perfect, but it sounds good to me... and it's the first time I do
this, so give me some credit. If you want to make it sound better, you'll have to tune
down a few steps (haven't got a clue how many)
[ Tab from: http://www.guitartabs.cc/tabs/s/six_feet_under/sick_and_twisted_btab.html ]
Guitar will do his thing a few times, then bass comes in, then start playing this:
-------------------------|
-----------------------3-|
---3-----1-----3-----1---| (verse & chorus)
-1---4-3---2-1---4-3-----|

When the other voice comes in, play this:
---------------------------------|
---------------------------------|
----------------------1--0--1----| (Aaah! I'll be your victim...)
-0~----1-0~---2-3~---------------|

------------------|
------------------|
------------------|  (SICK AND TWISTED!)
--0000-0-0000-1-0-|

Please rate, I really want to know if I did a good job on the first tab I've ever made...
Comments