Six Feet Under - Poison Hand Chords & Tabs

 

Poison Hand Chords & Tabs

Six Feet Under Chords & Tabs

Version: 1 Type: Tab 0 ratings
1 star 2 stars 3 stars 4 stars 5 stars
comments

Poison Hand Tab

Band:  Six feet under
Title: The poison hand
Album: 13 - thirteen

----------------------------

Tabbed by: Chris W.(LCPD@gmx.at)

Date: May 16, 2005

Comments and stuff like that:

>>please e-mail me all shit you want! ;)<<

HAVE FUN @ playing this song!

-----------------------------



x0 means:  Put your 1st finger on the whole 1st bound!
(but donŽt press very hard only lie it soft on the saits.
You now for sure these thypical metal sound!)


~  means:  Let it ring (find out for yourself how long!)


Intro: (play 3 times)

e|-------------------------------------------------------|
b|-------------------------------------------------------|	
g|-------------------------------------------------------|
d|---3--x0x0----3--x0x0x0-------3--x0x0----3--x0x0x0-----|
a|---3--x0x0----3--x0x0x0-------3--x0x0----3--x0x0x0-----|
e|---0--x0x0----0--x0x0x0-------0--x0x0----0--x0x0x0-----|

e|-------------------------------------------------------|
b|-------------------------------------------------------|	
g|-------------------------------------------------------|
d|---3--x0x0----3--x0x0--2--x0--3--x0x0----3--x0x0x0-----|
a|---3--x0x0----3--x0x0--2--x0--3--x0x0----3--x0x0x0-----|
e|---0--x0x0----0--x0x0--0--x0--0--x0x0----0--x0x0x0-----|



Verse:

                (Thats not exacly         )
                (the right strumming      )
                (please listen to the song)
                    ^       ^  
                    |       |
e|----------------------------------------------|
b|----------------------------------------------|
g|----------------------------------------------|
d|------------x0x0x0x0x0x0x0--------------------|
a|---7~--6~---x0x0x0x0x0x0x0--------------------|
e|---5~--4~---x0x0x0x0x0x0x0--------------------|
                 
               deadly to you              

e|----------------------------------------------|
b|----------------------------------------------|
g|----------------------------------------------|
d|------------x0x0x0x0x0x0x0--------------------|
a|---7~--6~---x0x0x0x0x0x0x0--------------------|
e|---5~--4~---x0x0x0x0x0x0x0--------------------|

               youŽll just fade away

e|----------------------------------------------|
b|----------------------------------------------|
g|----------------------------------------------|
d|------------x0x0x0x0x0x0x0--------------------|
a|---7~--6~---x0x0x0x0x0x0x0--------------------|
e|---5~--4~---x0x0x0x0x0x0x0--------------------|

               nothing left in your head

e|----------------------------------------------|
b|----------------------------------------------|
g|----------------------------------------------|
d|----------------------------------------------|
a|---7~---6~---5~~~-----------------------------|
e|---5~---4~---3~~~-----------------------------|

                     this is the touch of death



Intro again: (play 2 times)


e|-----------------------------------------------------|
b|-----------------------------------------------------|
g|-----------------------------------------------------|
d|---3--x0x0----3--x0x0x0-------3--x0x0----3--x0x0x0---|
a|---3--x0x0----3--x0x0x0-------3--x0x0----3--x0x0x0---|
e|---0--x0x0----0--x0x0x0-------0--x0x0----0--x0x0x0---|

e|-----------------------------------------------------|
b|-----------------------------------------------------|	
g|-----------------------------------------------------|
d|---3--x0x0----3--x0x0--2--x0--3--x0x0----3--x0x0x0---|
a|---3--x0x0----3--x0x0--2--x0--3--x0x0----3--x0x0x0---|
e|---0--x0x0----0--x0x0--0--x0--0--x0x0----0--x0x0x0---|



2nd verse:


e|----------------------------------------------|
b|----------------------------------------------|
g|----------------------------------------------|
d|------------x0x0x0x0x0x0x0--------------------|
a|---7~--6~---x0x0x0x0x0x0x0--------------------|
e|---5~--4~---x0x0x0x0x0x0x0--------------------|
                 
               deadly to you              

e|----------------------------------------------|
b|----------------------------------------------|
g|----------------------------------------------|
d|------------x0x0x0x0x0x0x0--------------------|
a|---7~--6~---x0x0x0x0x0x0x0--------------------|
e|---5~--4~---x0x0x0x0x0x0x0--------------------|

               youŽll just fade away

e|----------------------------------------------|
b|----------------------------------------------|
g|----------------------------------------------|
d|------------x0x0x0x0x0x0x0--------------------|
a|---7~--6~---x0x0x0x0x0x0x0--------------------|
e|---5~--4~---x0x0x0x0x0x0x0--------------------|

               nothing left in your head

e|----------------------------------------------|
b|----------------------------------------------|
g|----------------------------------------------|
d|----------------------------------------------|
a|---7~---6~---5~~~-----------------------------|
e|---5~---4~---3~~~-----------------------------|

                     this is the touch of death



Bridge: (time: 1:16 - 1:51)


e|----------------------------------------------|
b|----------------------------------------------|
g|----------------------------------------------|
d|----------------------------------------------|
a|----6~--5~--4~--3~------6~--5~--4~------------|
e|----4~--3~--2~--1~------4~--3~--2-3-2-3-------|
[ Tab from: http://www.guitartabs.cc/tabs/s/six_feet_under/poison_hand_tab.html ]
e|----------------------------------------------|
b|----------------------------------------------|
g|----------------------------------------------|
d|----------------------------------------------|
a|----6~--5~--4~--3~---------6~--5~--4~---------|
e|----4~--3~--2~--1~---------4~--3~--2-3-2-3----|

e|----------------------------------------------|
b|----------------------------------------------|
g|----------------------------------------------|
d|----------------------------------------------|
a|---6~--5~--4~--3~-----------6~--5~--4~--------|
e|---4~--3~--2~--1~-----------4~--3~--2-3-2-3---|

   youŽare just fadinŽ away   to the grave

e|----------------------------------------------|
b|----------------------------------------------|
g|----------------------------------------------|
d|----------------------------------------------|
a|----6~--5~--4~--3~----6~--5~--4~--------------|
e|----4~--3~--2~--1~----4~--3~--2-3-2-3---------|

      thereŽs no savinŽ you now 




(play 2 times)
e|-----------------------------------------------------|
b|-----------------------------------------------------|	
g|-----------------------------------------------------|
d|---3--x0x0----3--x0x0x0-------3--x0x0----3--x0x0x0---|
a|---3--x0x0----3--x0x0x0-------3--x0x0----3--x0x0x0---|
e|---0--x0x0----0--x0x0x0-------0--x0x0----0--x0x0x0---|

e|-----------------------------------------------------|
b|-----------------------------------------------------|	
g|-----------------------------------------------------|
d|---3--x0x0----3--x0x0--2--x0--3--x0x0----3--x0x0x0---|
a|---3--x0x0----3--x0x0--2--x0--3--x0x0----3--x0x0x0---|
e|---0--x0x0----0--x0x0--0--x0--0--x0x0----0--x0x0x0---|


Outro:

e|----------------------------------------------|
b|----------------------------------------------|
g|----------------------------------------------|
d|------------x0x0x0x0x0x0x0--------------------|
a|---7~--6~---x0x0x0x0x0x0x0--------------------|
e|---5~--4~---x0x0x0x0x0x0x0--------------------|
                 
               deadly to you              

e|----------------------------------------------|
b|----------------------------------------------|
g|----------------------------------------------|
d|------------x0x0x0x0x0x0x0--------------------|
a|---7~--6~---x0x0x0x0x0x0x0--------------------|
e|---5~--4~---x0x0x0x0x0x0x0--------------------|

               youŽll just fade away

e|----------------------------------------------|
b|----------------------------------------------|
g|----------------------------------------------|
d|------------x0x0x0x0x0x0x0--------------------|
a|---7~--6~---x0x0x0x0x0x0x0--------------------|
e|---5~--4~---x0x0x0x0x0x0x0--------------------|

               nothing left in your head

e|----------------------------------------------|
b|----------------------------------------------|
g|----------------------------------------------|
d|----------------------------------------------|
a|---7~---6~---5~~~-----------------------------|
e|---5~---4~---3~~~-----------------------------|

                     this is the touch of death

e|----------------------------------------------|
b|----------------------------------------------|
g|----------------------------------------------|
d|----------------------------------------------|
a|---7~---6~---5~~~-----------------------------|
e|---5~---4~---3~~~-----------------------------|

                     this is the touch of death

e|----------------------------------------------|
b|----------------------------------------------|
g|----------------------------------------------|
d|----------------------------------------------|
a|---7~---6~---5~~~-----------------------------|
e|---5~---4~---3~~~-----------------------------|

                     this is the touch of death

e|----------------------------------------------|
b|----------------------------------------------|
g|----------------------------------------------|
d|------------x0x0x0x0x0x0x0--------------------|
a|---7~--6~---x0x0x0x0x0x0x0--------------------|
e|---5~--4~---x0x0x0x0x0x0x0--------------------|

               nothing a denial

e|----------------------------------------------|
b|----------------------------------------------|
g|----------------------------------------------|
d|------------x0x0x0x0x0x0x0--------------------|
a|---7~--6~---x0x0x0x0x0x0x0--------------------|
e|---5~--4~---x0x0x0x0x0x0x0--------------------|

               nothing a denial

e|----------------------------------------------|
b|----------------------------------------------|
g|----------------------------------------------|
d|------------x0x0x0x0x0x0x0--------------------|
a|---7~--6~---x0x0x0x0x0x0x0--------------------|
e|---5~--4~---x0x0x0x0x0x0x0--------------------|

               youŽll just fade away

e|----------------------------------------------|
b|----------------------------------------------|
g|----------------------------------------------|
d|------------x0x0x0x0x0x0x0--------------------|
a|---7~--6~---x0x0x0x0x0x0x0--------------------|
e|---5~--4~---x0x0x0x0x0x0x0--------------------|



Full lyrics:

--------------------------

deadly to you
youŽll just fade away
nothing left in your head

this is the touch of death

deadly to you
youŽll just fade away
nothing left in your head

this is the touch of death


youŽare just fadinŽ away
to the grave
thereŽs no savinŽ you now


deadly to you
youŽll just fade away
nothing left in your head

this is the touch of death

--------------------------

(c) by Six Feet Under

All lyrics are taken from the offical LP lyrics book.
Comments