Six Feet Under - Death Or Glory Chords & Tabs

 

Death Or Glory Chords & Tabs

Six Feet Under Chords & Tabs

Version: 1 Type: Tab 0 ratings
1 star 2 stars 3 stars 4 stars 5 stars
comments

Death Or Glory Tab

Author/Artist: Six Feet Under
Title: Death or Glory
Album: Warpath
Transcribed by: Justin Wold
Email: imsexygirls@hotmail.com

i dont own the cd but from what i remember it is only two
riffs , i think this song may be a cover

Tune to D

riff1
-----------------------------------------|
-----------------------------------------|
-----------------------------------------|
--8\7--------8\7--------8\7--------3-3-5-|
--6\5--------6\5--------6\5--------1-1-3-|
------000000-----000000-----000000-------|
[ Tab from: http://www.guitartabs.cc/tabs/s/six_feet_under/death_or_glory_tab.html ]
riff2
--------------------------------------------------------|---------------------
--------------------------------------------------------|---------------------
--------------------------------------------------------|---------------------
--------------------------------------------------------|---------------------
--7--7--5--3--3-3--5--5-4-3-0-----7---------3--3---5--5-|---------------------
--7--7--5--3--3-3--5--5-4-3-0-----7---------3--3---5--5-|-rpt-riff-1----------
                                  ive  got  murder on my mind
Comments