Six Feet Under - Burning Blood Chords & Tabs

 

Burning Blood Chords & Tabs

Six Feet Under Chords & Tabs

Version: 2 Type: Bass Tab 0 ratings
1 star 2 stars 3 stars 4 stars 5 stars
comments

Burning Blood Bass Tab

This is my first try at sending a bass tab. It is also one of my first
times creating tablature! The song is called
"Burning Blood" by Six Feet Under, off of their album Warpath. It is
probably off a little due to the fact that I figured it out without an
amp. I used only the sounds of the strings. Please email me if it was
sent properly, and you can read it!             Dbone

isurf@bellsouth.net
                                                                   
G||--------------------------------|------------------------------|
D||*-------------------------------|------------------------------|
A||*--0--------0-------------------|--3----2----0--------0--------|
E||---------------------0--0--3----|------------------------------|

[ Tab from: http://www.guitartabs.cc/tabs/s/six_feet_under/burning_blood_btab_ver_2.html ]
                         7x                                                
-------------------------||-----------------------------------------------|
------------------------*||*----------------------------------------------|
--------6----------5----*||*------------------------------1----------0----|
--0--0-------0--0--------||---0----0--0--3----0--0--0--0-------0--0-------|


                                               3x
-----------------------------------------------||
----------------------------------------------*||
----------------------------------------------*||
--0----0--0--1----0--0--0--0--4----0--0--3-----||


                                               
----------------------------------------------|
*---------------------------------------------|
*----------------------------------6--5--0----|
---0----0----3----0--0----0--5h-6-------------|


                                            3x
--------------------------------------------||
-------------------------------------------*||
----------------------------1--------------*||
--0----0----3----0--0----0-------1----3-----||
Comments