Six Feet Under - Bringer Blood Chords & Tabs

 

Bringer Blood Chords & Tabs

Six Feet Under Chords & Tabs

Version: 1 Type: Tab 0 ratings
1 star 2 stars 3 stars 4 stars 5 stars
comments

Bringer Blood Tab

   
Band:  Six Feet Under
Album: Bringer of Blood
Song:  Bringer of Blood

Transcribed By: Mason
Email:          Mexxxican58@comcast.net


.  - palm mute           /  - slide up to
\  - slide down to       ~  - vibrato
h  - hammer on           b  - Bend
p  - pull off            Suffixes for bend
t  - tap                 f  - full bend    h - half bend
ph - pinched harmonic    q  - quarter bend t - tap bend
*  - see comment         ^  - Hold bend    r release bend
x  - Stuccatto           ~  - vibrato bend
,  - slight palm mute    () - ghost note, sustained note
"  - tremolo note        <> - Trill

Tunning  C F Bb Eb G C

I love this riff
|-----------------------|
|-----------------------|
|-----------------------|
|-----------------------|
|--------7-4-4(2)-------|
|--3ph-0-5-3-2-0--------|
       . . . . .
[ Tab from: http://www.guitartabs.cc/tabs/s/six_feet_under/bringer_blood_tab.html ]
|-------------------------------------------------------------------|
|-------------------------------------------------------------------|
|-------4/3-----4/3-------------------------------------------------|
|--4\5--4/3-4\5-4/3-----3-------------------------------------------|
|--4\5--2/1-4\5-2/1-2-2-3-------------------------------------------|
|--2\3------2\3-----0-0-1-------------------------------------------|
                    . .

This one too (*Strum all notes)
|-------------------------------------------------------------------|
|-------------------------------------------------------------------|
|--9~--8~---9~-11~-9~--8~-------------------------------------------|
|--9~--8~---9~-11~-9~--8~-9~----------------------------------------|
|--7~--6~---7~-9~--7~--6~-9~----------------------------------------|
|-------------------------7~----------------------------------------|

Get the timing down youself bitch lol

For correctinos please correct i don't have the best ear in the world

END

 - \m/aZe
Comments