Six Feet Under - Bonesaw Chords & Tabs

 

Bonesaw Chords & Tabs

Six Feet Under Chords & Tabs

Version: 1 Type: Tab 0 ratings
1 star 2 stars 3 stars 4 stars 5 stars
comments

Bonesaw Tab

-----------------------------------------
Band:  Six feet under
Title: Bonesaw 
Album: Maximum Violence

Date: 10/08/05
------------------------------------------

Have fun @ playing this song and surf @ http://metaltabs.com/.

------------------------------------------

Riff 1
|-------------------------------|--------------------------------|
|-------------------------------|--------------------------------|
|-------------------------------|--------------------------------|
|---------4-------------5-------|---------4----------------------|
|--2------2------5------3---3---|--2------2------5------6----3---|
|--0-------------3----------1---|--0-------------3------4----1---|


Riff 2
|------------------------------------|
|------------------------------------|
|------------------------------------|
|------------------------------------|
|----------44445555------------------|
|--22222222--------1111111144443333--|
   ........        ................

Riff 3
|----------------------------------------|
|----------------------------------------|
|----------------------------------------|
|--7/6-------5/4-------------------------|
|--5/4-------3/2-------------------------|
|-------0000------0000-0000111122223333--|
        ....      .... ................
[ Tab from: http://www.guitartabs.cc/tabs/s/six_feet_under/bonesaw_tab.html ]
Riff 4
|-------------------------------|-------------------------------|
|-------------------------------|-------------------------------|
|-------------------------------|-------------------------------|
|----------3--------------------|----------5--------------------|
|----------1----------4--4\5/4--|----------3----------6--6\7/6--|
|--0-0-0-0------0-0-0-2--2\3/2--|--0-0-0-0------0-0-0-4--4\5/4--|
   . . . .      . . .              . . . .      . . .

Riff 5
|----------------------------------------------------------------|
|----------------------------------------------------------------|
|----------------------------------------------------------------|
|------------------------------------------------4\5/4-----------|
|--3\4/3--------------------------3\4/3----------2\3/2-----------|
|--1\2/1--0-0-0-0-0-0-0-0-0-0-0-0-1\2/1--0-0-0-0--------0-0-0-0--|
|         . . . . . . . . . . . .        . . . .        . . . .  |

|                                                                |
|----------------------------------------------------------------|
|----------------------------------------------------------------|
|----------------------------------------------------------------|
|----------------------------------------------------------------|
|--3\4/3--------------------------3\4/3----------5\6/5-----------|
|--1\2/1--0-0-0-0-0-0-0-0-0-0-0-0-1\2/1--0-0-0-0-3\4/3--0-0-0-0--|
          . . . . . . . . . . . .        . . . .        . . . .

End
|--------|
|--------|
|--------|
|--------|
|--2x----|
|--0x----|

Comments