Six Feet Under - As I Die Chords & Tabs

 

As I Die Chords & Tabs

Six Feet Under Chords & Tabs

Version: 1 Type: Tab 0 ratings
1 star 2 stars 3 stars 4 stars 5 stars
comments

As I Die Tab

   
Band- Six Feet Under
Song- As I Die

Tuning: D G C F A D

INTRO/VERSE
Play this only on the first time
|--------------------|
|--------------------|
|---/9-----9---------|
|-3-/9-----9---------|
|-3-/7-----7---------|
|-1--0-0-0---0-0-0-0-|

Then play it like this normally
|------------------|
|------------------|
|-/9-----9---------|
|-/9-----9---------|
|-/7-----7---------|
|----0-0---0-0-0-0-|

CHORUS
|-------------------|
|-------------------|
|-------------------|
|-5-5-3----6-6-2----|
|-5-5-3----6-6-2----|
|-3-3-1----4-4-0----|

VERSE 2 - Same

CHORUS 2 - Same
[ Tab from: http://www.guitartabs.cc/tabs/s/six_feet_under/as_i_die_tab.html ]
SOLO		     x4
|----------------------|
|----------------------|
|----------------------|
|-7-7-11----10-10-8----|
|-7-7-11----10-10-8----|
|-5-5-9-----8--8--6----|

                  x4
|-------------------|
|-------------------|
|-------------------|
|-5-5-8----7-7-3----|
|-5-5-8----7-7-3----|
|-3-3-6----5-5-1----|

                     x4
|----------------------|
|----------------------|
|----------------------|
|-7-7-11----10-10-8----|
|-7-7-11----10-10-8----|
|-5-5-9-----8--8--6----|

VERSE 3 - Same

CHORUS 3 - Same

OUTRO - Fade out...
|---------------------|
|---------------------|
|---------------------|
|-5---3-----6---2-----|
|-5---3-----6---2-----|
|-3---1-----4---0-----|
Comments