Sisters Of Mercy - Temple Of Love Chords & Tabs

 

Temple Of Love Chords & Tabs

Sisters Of Mercy Chords & Tabs

Version: 1 Type: Bass Tab 0 ratings
1 star 2 stars 3 stars 4 stars 5 stars
comments

Temple Of Love Bass Tab

   
"Temple of Love" by The Sisters of Mercy (from the album "Some Girls Wander By Mistake")
========================================================================================

Transcribed by: Frank Tower (towerf@Sol.ACS.UWOsh.Edu)

Riff 1:

G|-----------------------------------------------------------------
D|-----------------------------------------------------------------
A|-7-7-7-7-7-7-7-7-5-7-7-7-7-7-7-7-0-0-2-2-3-3-5-5-0-0-2-2-3-3-5-5-
E|-----------------------------------------------------------------


Riff 2:
[ Tab from: http://www.guitartabs.cc/tabs/s/sisters_of_mercy/temple_of_love_btab.html ]
G|-------------------------------------------------------------------
D|-------------------------------------------------------------------
A|-------------------------------------------------------------------
E|-0-0-0-0-0-0-0-3---3-3-3-3-3-3-5---5-5-5-5-5-5-5-5-5-7-7-8-8-10-10-


Riff 3:

G|-----------------------------------------
D|-----------------------------------------
A|-7-------5-------0-------0-0-2-2-3-3-5-5-
E|-----------------------------------------


Riff 4:

G|---------------------------------
D|---------------------------------
A|-7-------5-------0---------------
E|---------------------------------


Comments