Sisters Of Mercy - Some Kind Of Stranger Chords & Tabs

 

Some Kind Of Stranger Chords & Tabs

Sisters Of Mercy Chords & Tabs

Version: 1 Type: Bass Tab 0 ratings
1 star 2 stars 3 stars 4 stars 5 stars
comments

Some Kind Of Stranger Bass Tab

"Some Kind of Stranger" by The Sisters of Mercy (from the album "First And Last And Always")
============================================================================================

Transcribed by Frank Tower (towerf@Sol.ACS.Uwosh.Edu)


Riff 1:

G|------------------|--------------------
D|------------------|--------------------
A|-5----5-5-5-5-5-5-|-7----7-3-3-3-5-5-5-
E|------------------|--------------------


Riff 2:

G|-----------------|--------------------
D|-----------------|--------------------
A|-----------------|--------3-3-3-5-5-5-
E|-3---3-3-3-3-3-0-|-5----0-------------


Riff 3:

G|----------------------|----------------------
D|----------------------|----------------------
A|-5-5-5--5-5--5-5--5-5-|-3-3-3--3-3--3-3--3-3-
E|----------------------|----------------------


Riff 4:
[ Tab from: http://www.guitartabs.cc/tabs/s/sisters_of_mercy/some_kind_of_stranger_btab.html ]
G|----------------------|-----------------
D|----------------------|-----------------
A|-5-5-5--5-5--5-5--5-5-|-----------------
E|----------------------|-3---------------


Riff 5:

G|----------------------|----------------------
D|----------------------|----------------------
A|-1-1-1--1-1--1-1--1-1-|-0-0-0--0-0--0--------
E|----------------------|---------------3--1-0-


Riff 6:

G|----------------------|----------------------
D|----------------------|----------------------
A|-1-1-1--1-1--1-1--1-1-|-0-0-0--0-0--0-0--0-0-
E|----------------------|----------------------


			    How to play it
			    --------------

                     Verse          Chorus            Verse
    Bass:   1 1  |  2 2 2 2  |  -3- -3- -3- -4-   |  2 2 2 2  |

                                    Chorus            Verse
    Bass:   -3- -6- -3- -6-  |  -3- -3- -3- -4-   |  2 2 2 2  |


    Bass:   -3- -6-  |           |  -3- -5-  |         




Comments