Sisters Of Mercy - I Was Wrong Chords & Tabs

 

I Was Wrong Chords & Tabs

Sisters Of Mercy Chords & Tabs

Version: 1 Type: Tab 0 ratings
1 star 2 stars 3 stars 4 stars 5 stars
comments

I Was Wrong Tab

   
#----------------------------------PLEASE NOTE---------------------------------#
#This file is the author's own work and represents their interpretation of the #
#song. You may only use this file for private study, scholarship, or research. #
#------------------------------------------------------------------------------#
 Subject: TAB:Sisters Of Mercy - "I Was Wrong"
To: jamesb@animal-farm.nevada.edu
Date: Tue, 12 Oct 1993 17:09:04 +0100 (MET)
X-Mailer: ELM [version 2.4 PL22]
Mime-Version: 1.0
Content-Type: text/plain; charset=ISO-8859-1
Content-Transfer-Encoding: 7bit
Content-Length: 3240      


THE SISTERS OF MERCY - "I Was Wrong" 

Comments, corrections, etc. welcome

Par Svensson, t89par@tdb.uu.se


Riff #1 :                                           *             *
[ Tab from: http://www.guitartabs.cc/tabs/s/sisters_of_mercy/i_was_wrong_tab.html ]
    1 ^ 2 ^ 3 ^ 4 ^ 1 ^ 2 ^ 3 ^ 4 ^ 1 ^ 2 ^ 3 ^ 4 ^ 1 ^ 2 ^ 3 ^ 4 ^ 
e |-------------------------------------------------------------2--- 
B |---------3---------------3---------------2-------2h3h2-----------
G |-----4---------------2-------2-------2-------2-----------4-------
D |-----------------0-------------0---------------------------------
A |-2-----------2h4-----------------0-------------------------------
E |-----------------------------------------------------------------


    1 ^ 2 ^ 3 ^ 4 ^ 1 ^ 2 ^ 3 ^ 4 ^ 1 ^ 2 ^ 3 ^ 4 ^ 1 ^ 2 ^ 3 ^ 4 ^ 
   -------------------------------------------------0--------------|
   ---------3---------------3-------2---2-----------0--------------|
   -----4---------------2-------2---2---2-----------1--------------|
   -----------------0-------------0-2---2-----------2--------------|
   -2-----------2h4-----------------0---0-----------2--------------|
   -------------------------------------------------0--------------|

(Repeat four times)


Chords:

     E A D G B E

B5 : 2 2 4 4 x x
D  : x x 0 2 3 2
A  : x 0 2 2 2 0
E  : x 7 9 9 9 7



#1
===================
B5  D  A  B5  D  E 
===================


Remarks: 

The above is my interpretation of the song for one guitar, but since
there are (at least) two acoustics + a bass, it's, as usual, quite
tricky to sort out what plays what. It's especially hard at the part
between the asterisks.

Also, I really don't know if "B5" is really called B5 :-)
Comments