Sisters Of Mercy - Driven Like The Snow Chords & Tabs

 

Driven Like The Snow Chords & Tabs

Sisters Of Mercy Chords & Tabs

Version: 2 Type: Bass Tab 0 ratings
1 star 2 stars 3 stars 4 stars 5 stars
comments

Driven Like The Snow Bass Tab

   
"Driven Like the Snow" by The Sisters of Mercy (from the album "Floodland")
===========================================================================

transcribed by jonas-ol@dsv.su.se

riff #1
G -----------------------------------------------------
D ------------------2---3------------------------------
A -0--0-2-0--0-2-3----3---0---2-0--0-2-0--0-2-3333---2-
E --------------------------3---------------------333--
[ Tab from: http://www.guitartabs.cc/tabs/s/sisters_of_mercy/driven_like_the_snow_btab_ver_2.html ]
riff #2
G -------------------------------------
D -2---------------3-----------2-3-2-0-
A ---------3---------------3-----------
E -------------------------------------

riff #3a
G -----
D -----
A ---2-
E -33--

riff #3b
G -----------------------------------------------------
D -----------------------------------------------------
A -0--------------------------2-0-------------3333---2-
E ------------------------3-3---------------------333--

riff #4
G ---
D ---
A -0-
E ---


How to play:

riff	#1  x10
	#2
	#1  x10
	#2
	#3a
	#3b x4
	#1  x4
	#2
	#4


Comments