Sisters Of Mercy - Burn Chords & Tabs

 

Burn Chords & Tabs

Sisters Of Mercy Chords & Tabs

Version: 1 Type: Tab 0 ratings
1 star 2 stars 3 stars 4 stars 5 stars
comments

Burn Tab

   
"Burn" by The Sisters of Mercy (from the album "Some Girls Wander by Mistake")
==============================================================================

Bass:
=====

F E  during verses

E C B  during "chorus"


Guitar 1:
=========

main riff:

e|-----5---7-5-4-----------------------5---7-5-4-------------------
B|-6-----6-------6-565---5---566-5-6-----6-------6-5---------------
G|---------------------7-------------------------------------------
[ Tab from: http://www.guitartabs.cc/tabs/s/sisters_of_mercy/burn_tab.html ]
e|-----5---7-5-4-----------------------5---7-5---5-----------------
B|-6-----6-------6-565---5---566-5-6-----6-----6---5---------------
G|---------------------7-------------------------------------------

"chorus" riff:

e|12----10--12--1012----10--12--10-8-----8----10---7-----8-----7---

e|12----10--12--1012----10--12--10-8-----8----10---7-----8-7-------
B|-----------------------------------------------------------6-5---
G|---------------------------------------------------------------7-


Guitar 2:
=========

main riff:

e|---------------------------------------------------4-5-7-5-454---
B|-6-------------------------------------------------------------4-

"chorus" riff:

e|12----10--12--1012----10--12--10-8-----8----10--15----15----15---  x2
Comments