Sisters Of Mercy - Adrenochrome Chords & Tabs

 

Adrenochrome Chords & Tabs

Sisters Of Mercy Chords & Tabs

Version: 2 Type: Bass Tab 0 ratings
1 star 2 stars 3 stars 4 stars 5 stars
comments

Adrenochrome Bass Tab

   
"Adrenochrome" by The Sisters of Mercy (from the album "Some girls wander by mistake")
======================================================================================

transcribed by Frank Tower (towerf@Sol.ACS.UWOsh.Edu)

Comments and suggestions are welcome.


Riff 1:

G|-------------------------------------------------------------------------
D|-------------------------------------------------------------------------
A|-2-2-2-2-2-2-2-2/9-9-9-9-9-9-9-9-12-12-12-12-12-12-12-12\7-7-7-7-7-7-7-7-
E|-------------------------------------------------------------------------


Riff 2:

G|-------------------------------------------------------------------------
D|-------------------------------------------------------------------------
A|-2-2-2-2-2-2-2-2/9-9-9-9-9-9-9-9-12-12-12-12-12-12-12-12\7-7-7-7-7-7-----
E|---------------------------------------------------------------------9-9-


Riff 3:
[ Tab from: http://www.guitartabs.cc/tabs/s/sisters_of_mercy/adrenochrome_btab_ver_2.html ]
G|-------------------------------------------------------------------------
D|-------------------------------------------------------------------------
A|-------------------------------------------------------------------------
E|-10-10-10-10-10-10-10-10\5-5-5-5-5-5-5-5/7-7-7-7-7-7-7-7-7-7-7-7-7-7/9-9-


Riff 4:

G|-------------------------------------------------------------------------
D|-------------------------------------------------------------------------
A|-------------------------------------------------------------------------
E|-10-10-10-10-10-10-10-10\5-5-5-5-5-5-5-5/7-7-7-7-7-7-7-7-7-7-7-7-7-7-7-7-


Riff 5:

G|-----------------------------------------------------------------
D|-----------------------------------------------------------------
A|-----------------------------------------------------------------
E|-7-7-7-7-7-7-7-7-5-5-5-5-5-5-5-5-3-3-3-3-3-3-3-3-2-2-2-2-2-2-2-2/


Riff 6:

G|-----------------------------------------------------------------
D|-----------------------------------------------------------------
A|-----------------------------------------------------------------
E|-7-7-7-7-7-7-7-7-5-5-5-5-5-5-5-5-3-3-3-3-3-3-3-3-2-2-2-2-2-2/9-9-

Comments