Sister Hazel - Your Winter Chords & Tabs

 

Your Winter Chords & Tabs

Sister Hazel Chords & Tabs

Version: 5 Type: Tab 0 ratings
1 star 2 stars 3 stars 4 stars 5 stars
comments

Your Winter Tab

   
 

 
#----------------------------------PLEASE NOTE---------------------------------# 
#This file is the author's own work and represents their interpretation of the #
#song. You may only use this file for private study, scholarship, or research. # #------------------------------------------------------------------------------#
  
================================================================================          
Title : Your Winter         
Artist : Sister Hazel          
Album : 10 Things I Hate About You 
Transcribed by : Ji-won Gwak ================================================================================  

I've been searching around for this beautiful song for a long time, 
but the net did not have it, so i  decided to tab it myself. 
So here it is: (
I didn't put any countings so you'll have to listen to the song) 

Legend ------   
h  = hammer-on  
p  = pull-off  
b  = bend  
r  = bend release  
/  = slide up/down 
 = natural harmonic 
[5] = artifical harmonic  
~  = vibrato  
tr = trill    

Intro: Play this then play it again for the first verse.  E-||--3-3-3-x-x-3-3-3-x-5-5-5-x-------------------7-7-7-x-x-7-7-7-x-3-3-
B-||*-3-3-3-x-x-3-3-3-x-7-7-7-x-------------------8-8-8-x-x-8-7-7-x-5-5-
G-||--4-4-4-x-x-4-4-x-x-7-7-7-x-----7-------------9-9-9-x-x-9-8-x-x-5-5-
D-||--5-5---x-x-5-5-x-x-7-7-7-x-5/7-7-7h9p7---7---9-9---x-x-9-9-x-x-5-5-
A-||*-5---------5-------5-5-----7/9---------9---7-7---------7-------3-3-
E-||--3---------3-------5-----x-------------------7---------7-------3---
     


E|-3--------------------|| 
B|-5-------------------*|| 
G|-5-----5--------------|| 
D|-5-3/5-5-5h7p5---5----|| 
A|---5/7---------7-----*|| 
E|-------------------3--||  


The rest has this chord progression throughout the song:  
G D Em C  

Lyrics  

Grey ceiling on the earth 
well it lasted for a while 
Take my thoughts for what they worth 
i've been acting like a child 
Your opinion what is that 
is just a different point of view 
[ Tab from: http://www.guitartabs.cc/tabs/s/sister_hazel/your_winter_tab_ver_5.html ]
What else what else can I do, 
I said i'm sorry I'm sorry  I said i'm sorry 
but what for, if I hurt you than I hate mysef, 
don't wanna hate myself 
Don't wanna hurt you  

why do you choose your pain  
If you only knew  how much i love you love you  

I won't be your winter, I won't be anyone's excuse to cry 
We can't be forgiven And I will be here  

then comes:  

1st Solo  
E|-----------------------------*| 
B|--8b-7~----------------------*| 
G|---------7-------------------*| 
D|-------9---9\7---------10b-9~*| 
A|---------------10-7-10~------*| 
E|-----------------------------*|  

Your picture on the shelf its been there for a while 
Frozen image of ourselves we've been acting like a 
child Ever since living trends that lasted for a while  
Read my eyes just like a diary Oh remember please remember  
Well I'm not a begger but once more, if I hurt you then I hate myself  
don't wanna hate myself  Don't wanna hurt you  
Why do you choose your pain  If you only knew  
How much I love you Love you  I won't be your winter, 
I won't be anyone's excuse to cry We can't be forgiven 
And I will be here  

then comes:  2nd Solo  

E|--------------------------------------------------
B|-------------------------------------15-16-18~----
G|--14~14h15p14---------------------------------17b-
D|--------------15-17b-15-14----17b-15--------------
A|---------------------------15~--------------------
E|--------------------------------------------------
     
E|-15~13-12--------------------------------------------*| B|----------13-----------------------------------------*| G|-------------12-14b15-2-2-2-3-3-4-4-6-6-8-8-11-11-12~*| D|----------------------0-0-0-0-0-0-0-0-0-0-0--0--0--0~*| A|-----------------------------------------------------*| E|-----------------------------------------------------*|  

NO! I won't be your winter               
Cause I won't be anyone's excuse to cry  
we can't be forgiven                     
And I will be here  x 2  

That's it, enjoy and email me if for any suggestions.  

Cheers!  celldamour@hotmail.com 

 
  
Comments