Sister Hazel - Your Winter Chords & Tabs

 

Your Winter Chords & Tabs

Sister Hazel Chords & Tabs

Version: 4 Type: Tab 0 ratings
1 star 2 stars 3 stars 4 stars 5 stars
comments

Your Winter Tab

   
ok ive never done this before so im so sorry if its a bit f**ked up!!
i transcribed this for an exam in music so its pretty damm acurate. 
here we go!!!!!

i really cant be bothered entering the strumming pattern so i will write in the chords and the 
fingring bits. k?

it goes
       g     d    e     c
1>-----3-----2----0-----0------------|
2>-----0-----3----0-----1------------|
3>-----0-----2----0-----0------------|
4>-----0-----0----2-----2------------|
5>-----2-----0----2-----3------------|
6>-----3-----0----0-----0------------|
[ Tab from: http://www.guitartabs.cc/tabs/s/sister_hazel/your_winter_tab_ver_4.html ]
strumming im gonna add it after all

where 1=strum
      x=mute

  g         d        e        c
  111x1x111 111x1111 111x1111 11(then the plucky bit)

**pluky bit**  (played from the c chord)
1>------------------------------------|
2>------------------------------------|
3>------------0h2p0-----0-------------|
4>---------2---------2----------------|
5>---3--3-----------------------------|
6>------------------------------------|

the struming may need a little impro (or a lot of impro) but hey i tryed.
if it really sucks(in ur opinion) then mail me at  bail_out@another.com
Comments