Sister Hazel - Your Winter Chords & Tabs

 

Your Winter Chords & Tabs

Sister Hazel Chords & Tabs

Version: 1 Type: Tab 1 rating
1 star 2 stars 3 stars 4 stars 5 stars
comments

Your Winter Tab

   
Artist: Sister Hazle
Song: Your Winter
Tabber: Alex "D4rKy" Styles
Comment:Hi folks, in my opinion this song is really great, so heres my version
(just listen to the song to figure out how to strum, it's quite easy):

h - Hammer on
p - Pull off
b - Bend
~ - Vibrato
\ - Slide

INTRO: G D E C

VERSE:   
   G                    D                           Em
   Gray ceiling on the earth, well it lasted for a while
                                     C                           G
   Take my thoughts for what they're worth, I been acting like a child
                         D                               Em       C
   Your opinion, what is that? Just a different point of view
   G                          D                               Em      C
   What else what else can i do, I said I'm sorry, yeah I'm sorry
   G                          D                         Em
   I said I'm sorry, but what for, If i hurt you then i hate myself
               C                               D
   Don't wanna hate myself, don't wanna hurt you

BRIDGE: 
   D          Em              C                D            Dsus4
   Why do you chew your pain, if you only knew how much I love you

CHORUS: 
   G     D           C D   G     D    Em                C
   I won't be your winter, I won't be anyones excuse to cry
   G      D     C9         G     D    Em   
   We can be forgiven, and I will be here, yeah

SOLO1:
E-----------------------------| 
B--7b-7~----------------------| 
G---------7-------------------| 
D-------9---9\7----------9b-9~| 
A---------------10-7-10~------| 
E-----------------------------|  
[ Tab from: http://www.guitartabs.cc/tabs/s/sister_hazel/your_winter_tab.html ]
VERSE:
   G                  D                                 Em
   Old picture on the shelf, well it's been there for a while
                      C                             G
   A frozen image of ourselves, we were acting like achilds
                    D                                 Em      C
   In a sense, in a transe, a dance that lasted for a while
   G                            D                          Em      C
   You read my eyes just like a diary, oh remember, please remember
   G                            D                        Em      
   I'm not a begger, but what's more is I hurt you and I hate myself
               C                               D
   Don't wanna hate myself, don't wanna hurt you

BRIDGE: 
   D             Em                    C                   D
   Why do you choose that pain, if you only knew how much I love you

CHORUS:
   G     D           C D   G     D    Em                C
   I won't be your winter, I won't be anyones excuse to cry
   G      D     C9         G     D    Em   
   We can be forgiven, and I will be here, yeah

SOLO2:
E--------------------------------------------------\15-13-12----
B-------------------------------------15-16-18~--------------13~
G-14~14h15p14----12~------------12~------------15b--------------
D-------------15------15p14--------15---------------------------
A---------------------------15~---------------------------------
E---------------------------------------------------------------
     
E----------------------------------------------------------|
B----------------------------------------------------------|
G-12~14b14-2-2-2-3-3-4-4-6-6-8-8-11-11-12~--14b-14bp12-17b-|
D----------0-0-0-0-0-0-0-0-0-0-0--0--0--0~-----------------|
A----------------------------------------------------------|
E----------------------------------------------------------|
		       (two guitars)
CHORUS:
   G     D           C D   G     D    Em                C
   I won't be your winter, I won't be anyones excuse to cry
   G      D     C9         G     D    Em   
   We can be forgiven, and I will be here, yeah
   G     D           C D   G     D    Em                C
   I won't be your winter, I won't be anyones excuse to cry
   G      D     C9         G     D    Em   
   We can be forgiven, and I will be here, yeah 

		... repeat as often you like it & fade out :)
Comments