Sister Hazel - Starfish Chords & Tabs

 

Starfish Chords & Tabs

Sister Hazel Chords & Tabs

Version: 2 Type: Bass Tab 0 ratings
1 star 2 stars 3 stars 4 stars 5 stars
comments

Starfish Bass Tab

   
Here is Sister Hazel's "Starfish" 

Artist: Sister Hazel
Song: Starfish
Author: JMan4653@aol.com
Tuning: Low to High (E,A,D,G)
Key: ~=let ring  
     h=hammer on
     *--*
     *--*=repeat what's inside
_______________________________________________________________________
Intro:

Drums Enter (Wait a few measures before playing)

G:/-------------------/----------------------/
D:/-0-3-0---0---------/-----3----------------/
A:/-------3---3-0-----/-3-5---5-3-5-3-0------/
E:/---------------1-1-/-----------------3-3--/

G:/-----------------/---------------/---------------/---------------/
D:/-5-2-0-2-0-------/---------------/---------------/---------------/
A:/-----------0-----/--1~----1--1-1-/--3~----3--3-3-/---------------/
E:/-------------3-3-/---------------/---------------/--1~----1--1-1-/
_______________________________________________________________________
1st Verse:

G:/------------------/-----------------/-----------------/
D:/*-3---3-3-3-----3-/-3---3-3-3-----3-/-5---5-5-5-----5-/
A:/*---3-------3h5---/---3-------3h5---/---5-------5h7---/
E:/------------------/-----------------/-----------------/

G:/-----------------/-----------------/------------------/
D:/-5---5-5-5-----5-/---3---------3-5-/-3---3-3-3-----3-*/
A:/---5-------5h7---/-1---1-1-1-1-----/---3-------3h5---*/
E:/-----------------/-----------------/------------------/

G:/-----------------/
D:/-3---3-3-3-----3-/
A:/---3-------3h5---/
E:/-----------------/
_______________________________________________________________________
Pre-Chorus:
"And everything is wonderful...."

G:/-----------------/-----------------/-----------------/
D:/-----3---------3-/-----3---------3-/-----3---------3-/
A:/-1-1---1-1-1-1---/-1-1---1-1-1-1---/-----------------/
E:/-----------------/-----------------/-1-1---1-1-1-1---/

G:/-----------------/-----------------/-----------------/
D:/-----3---------3-/-----5---------5-/-----5---------5-/
A:/-----------------/-----------------/-----------------/
E:/-1-1---1-1-1-1---/-3-3---3-3-3-3---/-3-3---3-3-3-3---/

G:/----------------/------------------/
D:/----------------/-----3---------3--/

A:/-3-3~----3--3-3-/------------------/
E:/----------------/-1-1---1-1-1-1---1/
_______________________________________________________________________
Chorus:
"Na, na, na na na na, na...."

G:/---------------/---------------/---------------/
D:/---------------/---------------/---------------/
A:/---------------/---------------/-1-1~----1-1-1-/
E:/-1-1~----1-1-1-/-3-3~----3-3-3-/---------------/
[ Tab from: http://www.guitartabs.cc/tabs/s/sister_hazel/starfish_btab_ver_2.html ]
G:/---------------/---------------/---------------/---------------/---/
D:/---------------/---------------/---------------/---------------/---/
A:/---------------/---------------/---------------/---------------/---/
E:/-1-1~----1-1-1-/-1-1~----1-1-1-/-3-3~----3-3-3-/-1-1~----1-1-1-/-1-/
_______________________________________________________________________
2nd Verse:

G:/---------------------/---------------------/-----------------/
D:/*-3-3---3-3-3-----3-*/*-5-5---5-5-5-----5-*/---3---------3-5-/
A:/*-----3-------3h5---*/*-----5-------5h7---*/-1---1-1-1-1-----/
E:/---------------------/---------------------/-----------------/

G:/-------------------/
D:/-3---3-3-3-----3-3-/
A:/---3-------3h5-----/
E:/-------------------/
_______________________________________________________________________
Bridge:
"We might bring a record or a game..."

G:/-----------------/-----------------/-----------------/
D:/*----3--------3-*/*----5--------5-*/-----3---------3-/
A:/*---------------*/*---------------*/-1-1---1-1-1-1---/
E:/-1-1---1--1-1----/-3-3---1--1-1----/-----------------/

G:/-----------------/-------------------/
D:/-----5---------5-/-----3---------3---/
A:/-3-3---3-3-3-3---/-------------------/
E:/-----------------/-1-1---1-1-1-1---1-/
_______________________________________________________________________
Guitar Solo:

G:/------------------/------------------/-------------/--------------/
D:/*----3---------3-*/*----5---------5-*/-------------/--------------/
A:/*----------------*/*----------------*/-1~----1--1-1/-3~----3--3-3-/
E:/-1-1---1-1-1-1----/-3-3---3-3-3-3----/-------------/--------------/

G:/--------------/
D:/--------------/
A:/--------------/
E:/-1~----1--1-1-/
_______________________________________________________________________
3rd Verse:

G:/-----------/-----------/--------------------/
D:/-----------/-----------/-----3---------3-5--/
A:/-----------/-----------/-1-1---1-1-1-1------/
E:/-1~----1-1-/-3~----3-3-/--------------------/
_______________________________________________________________________
Outro:
"There we were..."

G:/---------/-----------/------------------/---------/---/
D:/*-------*/*---------*/*----3---------3-*/*-------*/---/
A:/*-------*/*-1-1-1-1-*/*----------------*/*-------*/-1-/
E:/-3-3-3-3-/-----------/-1-1---1-1-1-1----/-3-3-3-3-/---/
_______________________________________________________________________
Order:

*Intro
*1st Verse
*Pre-Chorus
*Chorus
*2nd Verse
*Pre-Chorus
Then Play:
G:/-------------------/
D:/-3---3-3-3-----3-3-/
A:/---3-------3h5-----/
E:/-------------------/
*Guitar Solo
*3rd Verse
*Chorus (2x)
*Outro
_______________________________________________________________________
***********************************************************************
*There it is!!!!  It took me a while to TAB, but it was worth it.     * *There need to be more Sister Hazel bass tabs on the net.  If you know* *of any, send em to me!!!  Email any questions or comments to:        * *JMan4653@aol.com.                                                    *
***********************************************************************
Comments