Sister Hazel - Out There Chords & Tabs

 

Out There Chords & Tabs

Sister Hazel Chords & Tabs

Version: 1 Type: Chords 0 ratings
1 star 2 stars 3 stars 4 stars 5 stars
comments

Out There Chords

   
song-out there
band-sister hazel
album-fortress
tabbed by-chris fuhrmeister(make7upyoul2s@hotmail.com)
hey this is a pretty easy song. i havent figured out 
the solo yes tho so if anyone knows it or has corrections email me.

standard tuning

verse- simple chord progression
    F     C     G
e|--1--|-----|--3--|
B|--1--|--1--|--3--|
G|--2--|-----|-----|
D|--2--|--2--|-----|
A|-----|--3--|--2--|
E|-----|-----|--3--|
[ Tab from: http://www.guitartabs.cc/tabs/s/sister_hazel/out_there_crd.html ]
chorus
    Am    F     C     G
e|-----|--1--|-----|--3--|
B|--1--|--1--|--1--|--3--|
G|--2--|--2--|-----|-----|
D|--2--|--2--|--2--|-----|
A|-----|-----|--3--|--2--|
E|-----|-----|-----|--3--|

bridge

e|--1--|-----|--1--|-----|
B|--3--|--1--|--1--|-----|
G|--2--|--2--|-----|-----|
D|-----|--2--|--2--|--2--|
A|-----|-----|--3--|--2--|
E|-----|-----|-----|-----|

the solo is basically a bunch of picking around on minor notes. 
im not exactly sure what it is yet tho.
well that is basically the whole song. email me for any 
comments/corrections or info on the solo.
Comments