Sister Hazel - Firefly Chords & Tabs

 

Firefly Chords & Tabs

Sister Hazel Chords & Tabs

Version: 1 Type: Tab 0 ratings
1 star 2 stars 3 stars 4 stars 5 stars
comments

Firefly Tab

   
FIREFLY

VERSE RIFF

E-2-3-2-0-2-0-|
B-3-3-3-3-3-3-|
G-2-2-2-2-0-0-|
D-0-0-0-0-0-2-|
A-----------3-|
E-------------|

PRECHORUS (G, G/A, G/C, G/D)
And tell me, Can you see her...
[ Tab from: http://www.guitartabs.cc/tabs/s/sister_hazel/firefly_tab.html ]
E---3---3---3---3--|
B----3---3---3---3-|
G--0---0---0---0---|
D-------------0----|
A-----0---3--------|
E-3----------------|


CHORUS
And so it is, the same you've not been since.... (Note:progression
starts repeat on the word since) [In case you couldn't figure it out]


G Am7 C Dsus2 (xx0230)


BRIDGE (Just guessing here)
She has a subtle way.....

Em7 Bm7 Am7 Dsus2
G   Bm7 Am7 Am7   Dsus2
Comments