Sister Hazel - Change Your Mind Chords & Tabs

 

Change Your Mind Chords & Tabs

Sister Hazel Chords & Tabs

Version: 1 Type: Bass Tab 0 ratings
1 star 2 stars 3 stars 4 stars 5 stars
comments

Change Your Mind Bass Tab

Song: Change your mind
Artist: Sister hazel
Album: Fortress
Tabbed by: Towjumper180@aol.com

This is the first tab I have wriiten, but it should be easy  to read. I have 
mainly put down the basic notes and anyone should be able to improvise from 
here. It is an easy song to put your own fills into.
 If anyone has any corrections let me know. I do a lot of improvising on my 
own. 


  There is a little fill in the intro

G|---------12h14p12---10-----------------------
D|---12h14---------------14---12---------------
A|-------------------------------10------------
E|---------------------------------------------

[ Tab from: http://www.guitartabs.cc/tabs/s/sister_hazel/change_your_mind_btab.html ]
 the oooooooohhhh yeeaaaahhh

G|------------------------------------|
D|------------------------------------|
A|---------------0h8--8----10---------|
E|-----8--8---------------------------|

verse

G|--------------------------|------------------------ 
D|--------------------------|------------------------
A|------10--10--12--12--8-8-|------------------------ 
E|--8--8--------------------|--8--8--5--5--1--1--3--3

pre-chorus

G|---------------------------------------|
D|---------------------------------------|
A|---------7--10---------7--10-----------|
E|---------------------------------------|


Chorus is the same notes as the oooooohhhhh yeah part

Comments