Sister Hazel - All For You Solo Chords & Tabs

 

All For You Solo Chords & Tabs

Sister Hazel Chords & Tabs

Version: 1 Type: Tab 0 ratings
1 star 2 stars 3 stars 4 stars 5 stars
comments

All For You Solo Tab

the great solo for the best song



--------------------------------------------------------------------------------------------------
--------------------------------------------------------------------------------------------------
-----------------------------------------------------------11s12---11----11---9-----9s7---7--7-7s0
--------9h10s12--12-12-12-----12-12--12--12---14---14-----------------14--------12------9---------
--9s10--------------------------------------------------------------------------------------------
--------------------------------------------------------------------------------------------------


--------------------------------------------------------------------------------------------------
--------------------------------------------------------------------------------------------------
--------------------------------------------11--12--14---14b-----------------14bbbb14-------------
----------9------10--10-----------12----14--------------------------------------------------------
---9s10-----10s12--------12s14--------------------------------------------------------------------
--------------------------------------------------------------------------------------------------

[ Tab from: http://www.guitartabs.cc/tabs/s/sister_hazel/all_for_you_solo_tab.html ]
--------------------------------------------------------------------------------------------------
-------------------------------------------------12--13---15--15b---15b---15b----15b----15b---15b-
---(14--(14)--14--12s11-12-12s----------12--14----------------------------------------------------
---------------------------------s14--------------------------------------------------------------
--------------------------------------------------------------------------------------------------
--------------------------------------------------------------------------------------------------

--------------------------------------------------------------------------------------------------
---(15)---15---(15)--15s13s12---13----13-12-----12-13-15-13---13s12-----12------------------------
--------------------------------------------14-----------------------14-----14b---------12s11-12--
------------------------------------------------------------------------------------------------14
--------------------------------------------------------------------------------------------------
--------------------------------------------------------------------------------------------------

---------------------------------------------------------------(15)--15s12-15----12---------------
------------------------------------------------------------------------------15--------15----15b-
----------------------------------------12-12----12----14bbs12------------------------------------
-14-12-10--------------------------12-14------14--------------------------------------------------
---------14-12-10----10---12s14-------------------------------------------------------------------
------------------14------------------------------------------------------------------------------



 and that is it hope everyone enjoys it 
Comments