Sir Mix-a-lot - Jump On It Chords & Tabs

 

Jump On It Chords & Tabs

Sir Mix-a-lot Chords & Tabs

Version: 1 Type: Tab

Jump On It Tab

Artist: Sir Mix-a-lot
Song: Jump On It
Approximate Time: 5:01

Theres no guitar in this song, but it is fun to play along with it, it can also be played on bass.

Intro (0:01) and (2:32)

|-------------------------
|-------------------------
|-------------------------
|-------------------------
|-5----4----5----5--6---7-
|-------------------------

Verse (0:09), (1:21), (2:40), (3:52), (4:25) 
[ Tab from: http://www.guitartabs.cc/tabs/s/sir_mix_a_lot/jump_on_it_tab.html ]
|------------------------------------------|
|------------------------------------------|
|------------------------------------------|
|------7-----------7-----------------------|
|-7-----------7---------9------7----5----7-|
|------------------------------------------|
      
|------------------------------------------|
|------------------------------------------|
|------------------------------------------|
|------7-----------7-----------------------|
|-7-----------7---------9------7----5----7-|
|------------------------------------------|
        
|------------------------------------------|
|------------------------------------------|
|------7-----------7-----------------------|
|-7-----------7---------9------7----5----7-|
|------------------------------------------|
|------------------------------------------|

|------------------------------------------|
|------------------------------------------|
|------------------------------------------|
|------7-----------7-----------------------|
|-7-----------7---------9------7----5----7-|
|------------------------------------------|