Sip Yeknom - Yottish Tale Chords & Tabs

 

Yottish Tale Chords & Tabs

Sip Yeknom Chords & Tabs

Version: 1 Type: Tab 0 ratings
1 star 2 stars 3 stars 4 stars 5 stars
comments

Yottish Tale Tab

-------------------------------------------------------------------------------
			     "A YOTTISH TALE" - Sip Yeknom
-------------------------------------------------------------------------------

By:Sly Guy   email:rylang@yahoo.com        If you don't have this new single
                                           then get it, it's sick!
  Slow Part of Intro
e|---0-----------------------------------------------------------------------|
B|---1----1----3----3/5----3----5----5/6----5----6----6/8----6----5----------|
G|---2-----------------------------------------------------------------------|
D|---2-----------------------------------------------------------------------|
A|---0-----------------------------------------------------------------------|
E|---------------------------------------------------------------------------|

e|---0---------------------------------------0-------------------------------|
B|---3----1----3----3/5----3----1----0h1-----1----1----3----3/5----3----5----|
G|---1---------------------------------------2-------------------------------|
D|---2---------------------------------------2-------------------------------|
A|---2---------------------------------------0-------------------------------|
E|---0-----------------------------------------------------------------------|

e|--------------------------------------1----1----3----3/5----3----5----5/6--|
B|---5/6----5----6----6/8----6----5-----3------------------------------------|
G|--------------------------------------2------------------------------------|
D|--------------------------------------0------------------------------------|
A|---------------------------------------------------------------------------|
E|---------------------------------------------------------------------------|

e|---5----6----6/8----6----5-----0--------------------------------------0----|
B|-------------------------------1----1----3----3/5----3----1----0------0----|
G|-------------------------------2--------------------------------------1----|
D|-------------------------------2--------------------------------------2----|
A|-------------------------------0--------------------------------------2----|
E|----------------------------------------------------------------------0----|

   Fast Part of Intro  (the chords are played behind the solo)
e|-------------------0-------------------------------------------------------|
B|3/5--3--1--0h1-----1--1--3--3/5--3--5--5/6--5--6---6/8---6---5---6---3-----|
G|-------------------2-------------------------------------------------------|
D|-------------------2-------------------------------------------------------|
A|----------------0----------------------------------------------------------|
E|---------------------------------------------------------------------------|

e|-------0------------------------------------0------------------------------|
B|-------3---5---6---5---6---5---6---5~-------1---1---3---3/5---3---5---5/6--|
G|-------1------------------------------------2------------------------------|
D|-------2------------------------------------2------------------------------|
A|-------2--------------------------------0----------------------------------|
E|---0-----------------------------------------------------------------------|
[ Tab from: http://www.guitartabs.cc/tabs/s/sip_yeknom/yottish_tale_tab.html ]
e|---------------------------------0------------------------------------0----|
B|---5---6---6/8--6--5--6--3-------3---5---6---5---6---5---6---5~-------1----|
G|---------------------------------1------------------------------------2----|
D|---------------------------------2------------------------------------2----|
A|---------------------------------2--------------------------------0--------|
E|-----------------------------0---------------------------------------------|

e|-----------------------------1---------------------0-----------------------|
B|---1---3---3/5---3---5-------3---5/6---5---6-------1---12---10---8---10---8|
G|-----------------------------2---------------------2-----------------------|
D|-------------------------0-------------------------2-----------------------|
A|-----------------------------------------------0---------------------------|
E|---------------------------------------------------------------------------|

===============================================================================

e|------------0------12(harmonic)--------------------------------------------|
B|---6---5~---0--------------------------------------------------------------|
G|------------1--------------------------------------------------------------|
D|------------2--------------------------------------------------------------|
A|------------2--------------------------------------------------------------|
E|------------0--------------------------------------------------------------|

  Verse                      Who stole the keeshka!
e|---------------------------0------0------0-----0-------0------0-----0-----0|
B|---3/5---3---1---0h1-------1------1------1-----1-------3------3-----3-----3|
G|---------------------------2------2------2-----2-------1------1-----1-----1|
D|---------------------------2------2------2-----2-------2------2-----2-----2|
A|------------------------0------0------0------0---------2------2-----2-----2|
E|----------------------------------------------------0------0------0-----0--|

e|------0---------0---------0-----0-------1-----1-----0-----0----0-----------|
B|------1---------3---------1-----1-------3-----3-----1-----1----0-----------|
G|------2-x4------1-x4------2-----2-------2-----2-----2-----2----2----------9|
D|------2---------2---------2-----2----0-----0--------2-----2----2-----------|
A|---0------------2------0-----0-------------------0-----0-------1----7------|
E|-------------0-------------------------------------------------0-----------|

e|---0-----------------------------------------------------------------------|
B|---1-----------------------------------------------------------------------|
G|---2---repeat the entire verse 4x--the guitar solo plays durring the 3rd --|
D|---2-------------------------------time, and it is exactly the same as the-|
A|---0-------------------------------guitar solo durring the fast part of the|
E|-----------------------------------intro-----------------------------------|

e|-----------------0------0-----0--------------------------------------------|
B|--then play--3/5---5--3---3-1---1--0---------------------------------------|
G|---------------------------------------------------------------------------|
D|---------------------------------------------------------------------------|
A|---------------------------------------------------------------------------|
E|---------------------------------------------------------------------------|

  Bass Solo
e|---------------------------------------------------------------------------|
B|---------------------------------------------------------------------------|
G|---------------------------------------------------------------------------|
D|-----2/14-------2/14-14h15p14h15p14----14--play 4x, after each time play---|
A|---0------15--0---------------------15-------------------------------------|
E|---------------------------------------------------------------------------|

e|---0---8------------------------0------8-------------------------0---------|
B|---1-------
Comments