Siouxsie And The Banshees - Metal Postcard Mittageisen Chords & Tabs

 

Metal Postcard Mittageisen Chords & Tabs

Siouxsie And The Banshees Chords & Tabs

Version: 1 Type: Bass Tab

Metal Postcard Mittageisen Bass Tab

   
METAL POSTCARD (MITTAGEISEN)
Siouxsie And The Banshees

Taken from the Polydor album The Scream (1978/2005 Reissue)

Transcribed by: Damian Pamminger (TwitcheD_85@hotmail.com)

Standard tuning: E A D G

Pause

Fig. 1a (6x)
|---------------------|
|---------------------|
|-3--3-----3--3--2--2-|
|---------------------|

Fig. 1b (4x)
|----------------------|
|----------------------|
|-3--3/-6---3--3--2--2-|
|----------------------|

Fig. 1a (8x)

Fig. 2 (2x)
|------------------------------------------------|-----------|
|------------------------------------------------|---Play----|
|-6--6--6--6--6--6--6--6\-1--1--1--1--1--1--1--1-|--Fig.-1b--|
|------------------------------------------------|-one-time--|
[ Tab from: http://www.guitartabs.cc/tabs/s/siouxsie_and_the_banshees/metal_postcard_mittageisen_btab.html ]
|------------------------|
|------------------------|
|-3--3/-6---3--3--2--2-/-|
|------------------------|

Fig. 3 (2x) (On 2nd Repeat, do not play very last slide)
|----------------------------------------------------------------------|
|----------------------------------------------------------------------|
|-10--10--10--10--10--10--10--10--10-\-6--6--6--6--6--6--6--6-/-10--10-|
|----------------------------------------------------------------------|

|----------------------------------------------|-------------|
|----------------------------------------------|---Play------|
|-10--10--10--10--10--10-\-6--6--6--6--6--6--6-|--Fig.-1b----|
|----------------------------------------------|-one-time----|

|------------------------|
|------------------------|
|-3--3/-6---3--3--2--2-/-|
|------------------------|

Fig. 1a (8x)
Fig. 2 (2x)
Fig. 3 (2x)
Fig. 1b (8x)
Fig. 2 (2x)
Fig. 3 (2x)
Fig. 1b (6x)

End
|------|
|------|
|-3--3-|
|------|