Siouxsie And The Banshees - Jigsaw Feeling Chords & Tabs

 

Jigsaw Feeling Chords & Tabs

Siouxsie And The Banshees Chords & Tabs

Version: 1 Type: Bass Tab

Jigsaw Feeling Bass Tab

   
JIGSAW FEELING
Siouxsie And The Banshees

Taken from the Polydor album The Scream (1978/2005 Reissue)

Transcribed by: Damian Pamminger (TwitcheD_85@hotmail.com)

Standard tuning: E A D G

Fig. 1 (23x)
|-----------------|
|-----------------|
|-6-6-6-0-5-5-5-0-|
|-----------------|

Fig. 2 (w/ Ending 1) (1x)
|-----------------------------------------------------------------------|
|-----------------------------------------------------------------------|
|-7----8-\--2--3-3-3-3-3-3-3-3-3--3-2--2-1--0-0-0-0-0-0-0-0-0-0-0-0-0-0-|
|----0------------------------------------------------------------------|

|-----------------------------------------------------------------------|
|-----------------------------------------------------------------------|
|-0-0-10-10-10-10-10-10-10-10-10-10-10-10-10-10-10-10-12-12-12-12-12-12-|
|-----------------------------------------------------------------------|

|-------------------------------------------------------------------------|
|-------------------------------------------------------------------------|
|-12-12-12-12-12-12-12-12-12-12-10-10-10-10-10-10-10-10-10-10-10-10-10-10-|
|-------------------------------------------------------------------------|

|-------------------------------------------------------------------------|
|-------------------------------------------------------------------------|
|-10-10-12-12-12-12-12-12-12-12-12-12-12-12-12-12-12-12-13-13-13-13-13-13-|
|-------------------------------------------------------------------------|

|-------------------------------------------------------------------------|
|-------------------------------------------------------------------------|
|-13-13-13-13-13-13-13-13-13-13-12-12-12-12-12-12-12-12-12-12-12-12-12-12-|
|-------------------------------------------------------------------------|

         Ending 1
|-------|-----------------------------------------------------------------|
|-------|-----------------------------------------------------------------|
|-12-12-|-10-10-10-10-10-10-10-10-10-10-10-10-10-10-10-10-0-0-0-0-0-0-0-0-|
|-------|-----------------------------------------------------------------|
[ Tab from: http://www.guitartabs.cc/tabs/s/siouxsie_and_the_banshees/jigsaw_feeling_btab.html ]
                                                   Ending 2
|-------------------------------------------------|----------------------|
|-------------------------------------------------|----------------------|
|-0-0-0-0-0-0-0-0-0-0-0-0-0-0-0-0-0-0-0-0-0-0-0-0-|-10-10-10-10-10-10-10-|
|-------------------------------------------------|----------------------|

|-------------------------------------------------------------|
|-------------------------------------------------------------|
|-10-10-10-10-10-10-10-10-10\-0-0-0-0-0-0-0-0-0-0-0-0-0-0-0-0-|
|-------------------------------------------------------------|

Ending 3
|---------------------------------------------------------------------------|
|---------------------------------------------------------------------------|
|-10-10-10-10-10-10-10-10-10-10-10-10-10-10-10-10-0-0-0-0-0-0-0-0-0-0-0-0-0-|
|---------------------------------------------------------------------------|

|-----------------------------------------------------------------------|
|-----------------------------------------------------------------------|
|-0-0-0-0-0-0-0-0-0-0-0-0-0-0-0-0-0-0-0-0-0-0-0-0-0-0-0-0-0-0-0-0-0-0-0-|
|-----------------------------------------------------------------------|

Fig. 1 (11x)
Fig. 2 (w/ Ending 2) (1x)

Fig. 3a (9x)
|--------------------------------|
|--------------------------------|
|-12-12---12-12---12-12---12-12--|
|--------------------------------|

Fill 1 (1x)
|---------------------------------------------------|
|---------------------------------------------------|
|-12-12---0-0-0-0-0-0-0-0-0-0-0-0-0-0-0-0-0-0-0-0-0-|
|---------------------------------------------------|

Fig. 1 (11x)
Fig. 2 (w/ Ending 3) (1x)
Fig. 3a (4x)

Fill 2 (1x)
|------------------------------------|
|------------------------------------|
|-12-12---12-12---12-12---12-12-10-\-|
|------------------------------------|

Fig. 3b (3x)
|-------------------------------------------|
|-------------------------------------------|
|-12-12-12---12-12-12---12-12-12---12-12-12-|
|-------------------------------------------|

Fill 3 (1x)
|----------|
|-14-14-14-|
|-12-12-12-|
|----------|

Fig. 4 (6x)
|------------------------------|
|-14-14-14-------14-14-14------|
|-12-12-12-------12-12-12------|
|------------------------------|

Pause until end