Siouxsie And The Banshees - Carcass Chords & Tabs

 

Carcass Chords & Tabs

Siouxsie And The Banshees Chords & Tabs

Version: 1 Type: Bass Tab

Carcass Bass Tab

   
CARCASS
Siouxsie And The Banshees

Taken from the Polydor album The Scream (1978/2005 Reissue)

Transcribed by: Damian Pamminger (TwitcheD_85@hotmail.com)

Standard tuning: E A D G

Fig. 1a (1x)
|----------------------------------------------------------------|
|-0--------0-0-0-0-12-12-12-\---0--------12-12-12-12-12-12-12----|
|-------------------------------------------------------------00-|
|----------------------------------------------------------------|

Fig. 2 (1x)
|-------------------------------------------------------------------|
|-------------------------------------------------------------------|
|-5---5-0-3-3----------------------5---5-0-3-3----------------------|
|---------------2-/3-3-3-3-3-3-3-33--------------2-/3-3-3-3-3-3-3-3-|

Fig. 3 (1x)
|-----------------------------------------------------------------|
|-----------------------------------------------------------------|
|----------------------------------8-8-8-8-8-8-8---7--------------|
|-5-5-5-5-5-5-5-5-5-5-5-5-5-5-5-5/---------------0----7---7-7-7-7-|

|----------|-------------------------------------------------------------|
|--REPEAT--|-------------------------------------------------------------|
|-two-more-|----------------------------------8-8-8-8-8-8-8---7----------|
|--times---|-5-5-5-5-5-5-5-5-5-5-5-5-5-5-5-5/---------------0----7---7-7-|

|-----|
|-5-7-|
|-----|
|-----|

Fig. 4 (1x)
|-----------------------------------|
|--------------5-7------------------|
|-0----------------0----------12-\--|
|-----------------------------------|
[ Tab from: http://www.guitartabs.cc/tabs/s/siouxsie_and_the_banshees/carcass_btab.html ]
Fig. 5 (1x)
|-------------------------------------------------------------------------|
|-4-/5-5-5-5-5-5-5-6-/7-7-7-7-7-7-7-4-/5-5-5-5-5-5-5-6-/7-7-7-7-7-7-------|
|-2-/3-3-3-3-3-3-3-4-/5-5-5-5-5-5-5-2-/3-3-3-3-3-3-3-4-/5-5-5-5-5-5-5-5---|
|-------------------------------------------------------------------------|

|-------------------------|--------|-----------------------------------|
|-------------------------|-REPEAT-|-4-/5-5-5-5-5-5-5-6-/7-7-7-7-7-7-7-|
|-0-0----5-5----0-0---0-0-|--------|-2-/3-3-3-3-3-3-3-4-/5-5-5-5-5-5-5-|
|-------------------------|--------|-----------------------------------|

|--------|---------------------------------|
|-REPEAT-|-5-5-5-5-3-3-3-3-2-2-2-2-1-1-1-1-|
|--------|---------------------------------|
|--------|---------------------------------|

Fig. 1b (1x)
|---------------------------------|
|-0------------12-\---0-----------|
|---------------------------------|
|---------------------------------|

Fig. 2 (1x)
Fig. 3 (1x)
Fig. 4 (1x)
Fig. 5 (1x)
Fig. 1b (1x)

Fig. 6 (1x)
|----------------------------------|------------|------------------------|
|-----------------4--5-5-5-5-5-5---|---REPEAT---|-----------------4--4-5-|
|-4-/5-5-0-2-/3-3----------------0-|-eight-more-|-4-/5-5-0-2-/3-3--------|
|----------------------------------|---times----|------------------------|

|-----------|------------|---------------------------------|------------|
|-5-5-5-5---|---REPEAT---|----------------4--5-5-5-5-5-5---|---REPEAT---|
|---------0-|-three-more-|-5---5-0-2-/3-3----------------0-|-three-more-|
|-----------|---times----|---------------------------------|---times----|

End
|--------------------------------------------------------------------------|
|-----------------4--5-5-5-5-5-5------------------4--5---------------------|
|-4-/5-5-0-2-/3-3----------------0-5---5-0-2-/3-3--------------------------|
|--------------------------------------------------------------------------|