Sinkhole - New Song Chords & Tabs

 

New Song Chords & Tabs

Sinkhole Chords & Tabs

Version: 1 Type: Bass Tab 0 ratings
1 star 2 stars 3 stars 4 stars 5 stars
comments

New Song Bass Tab

   
#------------Created with Taborama Tab Creator-----------------#
#------------------------------------------------------------------------------#

Title: new song
Artist: sinkhole
Album: 

Instrument: 5 String Bass

Tabbed by:  ()

Tuning: Standard (B E A D G)intro
G|----------------------------||
D|---------------------------||
A|--3--3--3------------------||
E|---------------------------||
B|-1-11-11--2222222242-------||

bridge
G|---------------------------------||
D|---------------------------------||
A|---------------------------------||
E|----------/6-4-3-----------------||
B|-111111111-------6-4-3-----------||

bit before the verse
G|----------------||
D|----------------||
A|----------------||
E|----------------||
B|-4-444-66666----||
[ Tab from: http://www.guitartabs.cc/tabs/s/sinkhole/new_song_btab.html ]
verse
G|---------------------------------------------||
D|-------------------------10----------9-------||
A|--8h10-11-10-8--------11----11----10---10----||
E|-8-------------11--14----------11------------||
B|---------------------------------------------||

chorus

G|---------------------------||
D|----------------------------
A|---------------------------||
E|-----4-444-666-------------||
B|-111-----------4-443-------||

i dont really know what to call these next parts, but oh well

this x2
G|---------------------------------------------||
D|---------------------------------------------||
A|---------------------------------------------||
E|---------------------------------------------||
B|-11111111/4444-333333--111111111/4444-33/66--||

then this x6
G|-------------------------------------------------||
D|-------------------------------------------------||
A|-------------------------------------------------||
E|-------------------666-333333333-4444-333--------||
B|-11111111/4444-333------------------------444----||
Comments