Sinkhole - Massacre Of The People Chords & Tabs

 

Massacre Of The People Chords & Tabs

Sinkhole Chords & Tabs

Version: 1 Type: Tab 0 ratings
1 star 2 stars 3 stars 4 stars 5 stars
comments

Massacre Of The People Tab

Author: SinKhole
Tabbed By: NotReel12345@yahoo.com
Title: Massacre of the People


Intro
Eb--||----------------------------------------------------||------------
B---||----------------------------------------------------||------------
Ab--||*--------------------------------------------------*||------------
Eb--||*--------------------------------------------------*||------------
Bb--||------9-----9-----7-----7-----5-----5-----4-----4---||--4---------
F---||---7-----7-----5-----5-----3-----3-----2-----2------||------------


Second Intro - Do this for the verses as well except palm muted
Eb--||---------------------------||--------------------------||---------
B---||---------------------------||--------------------------||---------
Ab--||*--------------------------||--------------------------||---------
Eb--||*--9--9--9--9--9--9--9--9--||--7--7--7--7--7--7--7--7--||--5------
Bb--||---9--9--9--9--9--9--9--9--||--7--7--7--7--7--7--7--7--||--5------
F---||---7--7--7--7--7--7--7--7--||--5--5--5--5--5--5--5--5--||--3------Eb-----------------------||---------------------------||----------------
B------------------------||---------------------------||----------------
Ab-----------------------||--------------------------*||----------------
Eb--5--5--5--5--5--5--5--||--4--4--4--4--4--4--4--4--*||--9--9--9--9----
Bb--5--5--5--5--5--5--5--||--4--4--4--4--4--4--4--4---||--9--9--9--9----
F---3--3--3--3--3--3--3--||--2--2--2--2--2--2--2--2---||--7--7--7--7----Eb--------------------||------------------------------------------||----
B---------------------||------------------------------------------||----
Ab--------------------||------------------------------------------||----
Eb--9--9--9--9--9--9--||--11--11--11--11--11--11--11--11--11--11--||----
Bb--9--9--9--9--9--9--||--11--11--11--11--11--11--11--11--11--11--||----
F---7--7--7--7--7--7--||--9---9---9---9---9---9---9---9---9---9---||----

[ Tab from: http://www.guitartabs.cc/tabs/s/sinkhole/massacre_of_the_people_tab.html ]
Eb------------------------------------------||--------------------------
B-------------------------------------------||--------------------------
Ab------------------------------------------||--------------------------
Eb--12--12--12--12--12--12--12--12--12--12--||--11--11--11--11--11------
Bb--12--12--12--12--12--12--12--12--12--12--||--11--11--11--11--11------
F---10--10--10--10--10--10--10--10--10--10--||--9---9---9---9---9-------Eb----------------------||--------------------------------||------------
B-----------------------||--------------------------------||------------
Ab----------------------||--------------------------------||------------
Eb--11--11--11--11--11--||--9--9--9--9--9--9--9--9--9--9--||--11--11----
Bb--11--11--11--11--11--||--9--9--9--9--9--9--9--9--9--9--||--11--11----
F---9---9---9---9---9---||--7--7--7--7--7--7--7--7--7--7--||--9---9-----


Eb----------------------------------||--------------||------||----------
B-----------------------------------||--------------||------||----------
Ab----------------------------------||--------------||------||----------
Eb--11--11--11--11--11--11--11--11--||--12--12--12--||--14--||----------
Bb--11--11--11--11--11--11--11--11--||--12--12--12--||--14--||----------
F---9---9---9---9---9---9---9---9---||--10--10--10--||--12--||----------


Chorus
Eb--||---------------------------||--------------------------||---------
B---||---------------------------||--------------------------||---------
Ab--||*--------------------------||--------------------------||---------
Eb--||*--9--9--9--9--9--9--9--9--||--7--7--7--7--7--7--7--7--||--5------
Bb--||---9--9--9--9--9--9--9--9--||--7--7--7--7--7--7--7--7--||--5------
F---||---7--7--7--7--7--7--7--7--||--5--5--5--5--5--5--5--5--||--3------


4x
Eb-----------------------||---------------------------||----------------
B------------------------||---------------------------||----------------
Ab-----------------------||--------------------------*||----------------
Eb--5--5--5--5--5--5--5--||--4--4--4--4--4--4--4--4--*||----------------
Bb--5--5--5--5--5--5--5--||--4--4--4--4--4--4--4--4---||----------------
F---3--3--3--3--3--3--3--||--2--2--2--2--2--2--2--2---||----------------


Interval thing after chorus
Eb--||-------------------------------------------||--------||-----------
B---||-------------------------------------------||--------||-----------
Ab--||*-----------------------------------------*||--------||-----------
Eb--||*--9--9--7--7--9--9--7--5--5--5--7--7--7--*||--9-----||--9--9-----
Bb--||---9--9--7--7--9--9--7--5--5--5--7--7--7---||--9-----||--9--9-----
F---||---7--7--5--5--7--7--5--3--3--3--5--5--5---||--7~~~--||--7--7-----Eb-----------------------------------------||---------------------------
B------------------------------------------||---------------------------
Ab-----------------------------------------||---------------------------
Eb--7--7--9--9--7--5--5--5--7--7--7--9-----||---------------------------
Bb--7--7--9--9--7--5--5--5--7--7--7--9-----||---------------------------
F---5--5--7--7--5--3--3--3--5--5--5--7^----||---------------------------
Comments