Sinister - Sadistic Intent Chords & Tabs

 

Sadistic Intent Chords & Tabs

Sinister Chords & Tabs

Version: 1 Type: Tab 0 ratings
1 star 2 stars 3 stars 4 stars 5 stars
comments

Sadistic Intent Tab

   
SADISTIC INTENT - Sinister
from 'Diabolical Summoning'



Rhythm Guitar Transcribed on Bass 
Tuning (Low - High): D B C F 

Bass Intro            Guitar Comes In...          (x2) 
|-------------------| |-------------------|----------| 
|-------------------| |-------------------|----------| 
|----5--4-----3--4--| |----5--4-----3--4--|-2--------| 
|-3--------2--------| |-3--------2--------|-0--------| 
  

|-------------------| 
|-------------------| 
|----5--4-----3--4--| 
|-3--------2--------| 
  

A                                           (x8) 
|-------------------------|--------------------| 
|-------------------------|--------------------| 
|-------------------------|-----5--4-----3--4--| 
|-0-0-0-0-0-0-0-0-0-0-0-0-|--3--------2--------| 
  pm...................... 
  

B1 
|----------------------------------------------------------| 
|----------------------------------------------------------| 
|-2--2--2--2h3-3-3-3-2--2--2--2h3-3-3-3-2--2--2--2h3-3-3-3-| 
|-0--0--0------------0--0--0------------0--0--0------------| 
  pm....................................................... 

B2 
|-----------------| 
|-----------------| 
|-1-1-1-1-2-2-2-2-| 
|-----------------| 
  pm.............. 
  

Repeat (B1 and B2) x3 

C                      (x4) 
|-------------------------| 
|-------------------5--4--| 
|-5--4--2--4--5--4--3--2--| 
|-3--2--0--2--3--2--------| 
  pm................ 
  

D1 (Fast !) 
|-----------------------------------------| 
|-----------------------------------------| 
|-2---------5-3-2-----2---------5-3-2-----| 
|---3-3-3-3-------3-3---3-3-3-3-------3-3-| 
  pm...................................... 
[ Tab from: http://www.guitartabs.cc/tabs/s/sinister/sadistic_intent_tab.html ]
D2 
|-------------------------------------| 
|-------------------------------------| 
|-6-6-5-5-7-7-6-6-8-8-7-7-11-11-10-10-| 
|-------------------------------------| 
  pm.................................. 
  

Repeat (D1 and D2) x4 

E                                                                (x2) 
|-------------------------------------------------------------------| 
|-------------------------------------------------------------------| 
|-2-2-2-2-2-2-2-2-3-3-3-3-2-2-2-2-0-0-0-0-3-3-3-3-2-2-2-2-2-2-2-0h2-| 
|-------------------------------------------------------------------| 
  pm................................................................ 
  

Repeat (D1 and D2) x2 
Repeat D1 
  

F1 
|----------------------------------------------------------| 
|----------------------------------------------------------| 
|-------------------------------------------------------6--| 
|-0-0-0--0-0-0--0-0-0--0-0-0--0-0-0--0-0-0--8-6-5-8-6-5----| 
  pm.................................................... 

F2 
|----------------------------------------------------------| 
|----------------------------------------------------------| 
|-------------------------------------------------------6--| 
|-0-0-0--0-0-0--0-0-0--0-0-0--6-8--8-6-5-6--8-6-5-8-6-5----| 
  pm.................................................... 

Repeat (F1 and F2) x3 
  

G   (This Part I'm not 100Sure About)                 (x4) 
|----------------------------------------------------------| 
|----------------------------------------------------------| 
|-------------------------------------------------------6--| 
|-6-8--8-6-5-6--8-6-8-6-5-6---6-8--8-6-5-6--8-6-5-8-6-5----| 
  pm.................................................... 

Repeat (F1 and F2) x4 
Repeat A, (B1 and B2), C, (D1 and D2) x4 , & E 
Repeat (D1 and D2)x3, & D1 

The End. 
  

Erik 
---------------------- 
erik_heino@hotmail.com
Comments