Sinister - Bastard Saints Chords & Tabs

 

Bastard Saints Chords & Tabs

Sinister Chords & Tabs

Version: 1 Type: Tab 0 ratings
1 star 2 stars 3 stars 4 stars 5 stars
comments

Bastard Saints Tab

   
BASTARD SAINTS - Sinister - Bastard Saints

Rhythm Guitar Transcribed on Bass
Tuning (low - High): D G C F


A1
|-----------------------------------------------------|
|--------------3-----------4--------3-----------------|
|-2------------1-----------2--------1-----5--2--3--4--|
|-0-----0-0-2--------2--0--------0--------3--0--1--2--|
        pm.....      pm....      pm       pm..........

A2
|--------------------------------------------|
|--------------3-----------------------------|
|-2------------1--------4-----2--------1-----|
|-0-----0-0-2--------0--2--------2--3-----1--|
        pm.....      pm       pm.............

A3
|-----------------------------------------------|
|--------------3--4-----------3-----------------|
|-2------------1--2--4--5-----1-----5--2--3--4--|
|-0-----0-0-0--------2--3--0--------3--0--1--2--|
        pm....................      pm..........

B1        B2
|--------------------------|----------------------------------------------|

|--------------------------|----------------------------------------------|

|-3------------------------|----------------------------------------------|

|-1-----1-1-1--3--2--1--2--|-0--0--0--0--1--0--2--3--1--0--0--2--0--2--3--|

[ Tab from: http://www.guitartabs.cc/tabs/s/sinister/bastard_saints_tab.html ]
pm................................................................

C
|------------------------------------------------------------------|
|--------------------------------------&---------------------------|
|--------------------------------------&---------------------------|
|-0-0-0--0-0-0--1--0--2--3--1--0--0--2----1--0--2--3--1--0--0--2---|
  pm...............................................................

Repeat A1, A2, A3 & B1
Repeat A1, A2, A1

Fill
|---------------|--------------------|
|---------------|--------------------|
|-5--2--3--4----|--------------------|
|-3--0--1--2----|-0--0-0-0--0-0-0----|
  pm..........    pm...............

D1 - Chorus
|-------------------------------------|
|-5----------/5--4----------4---------|
|-3---0-0-0--/3--2---0-0-0--2---------|
|------------------------------0-0-0--|
      pm....         pm.....   pm.....

D2
|----------------------------------|
|----------------------------------|
|----------------------------------|
|----------------------------------|
  pm......

D3
|-----------------------|-----------------|
|---------------7---6---|-----------------|
|-----------6---5---4---|-----------------|
|-3-3-3-3-3-4-----------|-----------------|
  pm........

THAT'S HOW MUCH I'VE DONE...FOR NOW!


Erik
----------------------
erik_heino@hotmail.com
Comments