Sing-sing - Halal A Majra Chords & Tabs

 

Halal A Majra Chords & Tabs

Sing-sing Chords & Tabs

Version: 1 Type: Tab 0 ratings
1 star 2 stars 3 stars 4 stars 5 stars
comments

Halal A Majra Tab

   
#----------------------------------PLEASE NOTE---------------------------------#
#This file is the author's own work and represents their interpretation of the #
#song. You may only use this file for private study, scholarship, or research. #
#------------------------------------------------------------------------------##
From: h430813@stud.u-szeged.hu
Subject: tab of sing-sing : Halal a majra


  I'm Andrew Miko from hungary . This is a tabulature of a cool R&R song .
  It plays SING - SING .

Riff A  ( 2 times )

Both guitar :

---------------------------------------------------------------------------|
---------------------------------------------------------------------------|
-----12-----------12-----------12\----8--------10--------10/---------------|
-----12-----------12-----------12\----8--------10--------10/---------------|
-----10--10-10----10--10-10----10\----6--6-6---8---8-8---8/----------------|
---------------------------------------------------------------------------|
          .  .         .  .      sl      . .       . .    sl

---------------------------------------------------------------------------|
---------------------------------------------------------------------------|
-----12-----------12-----------12\-----------------------------------------|
-----12-----------12-----------12\----8--------10--------10/---------------|
-----10--10-10----10--10-10----10\----8--------10--------10/---------------|
--------------------------------------6--6-6---8---8-8---8/----------------|
          .  .         .  .      sl      . .       . .    sl


Riff B :

Gtr 1

--------------------------------------------------------------------------|
--------------------------------------------------------------------------|
-----7--7--5--5---------------7-----5--5----------------------------------|
-----------------8--8--7--7---------------8--8--7--7----------------------|
--------------------------------------------------------------------------|
--------------------------------------------------------------------------|
     .  .  .  .  .  .  .  .   A.H   .  .  .  .  .  .

Gtr 2

     G5                       Bb5

Gtr 1

--------------------------------------------------------------------------|
--------------------------------------------------------------------------|
-----5--5---------------------5-------------------------------------------|
-----------8--8--7--7--5--5---------8--8--7--7--5--5----------------------|
--------------------------------------------------------------------------|
--------------------------------------------------------------------------|
     .  .  .  .  .  .  .  .   A.H   .  .  .  .  .  .

Gtr 2

    F5                        F5

First verse :

Both guitar

    G5                    Bb5

    Ma ejjel egy hatalmas buli lesz nalunk

    C5                       G5

    Egy fergeteges , totalis ajulas

    G5               Bb5

    Itt van a helyed Neked is koztunk

    C5                    G5

    Meghivo nem kell csak hozz piat !

    G5                      Bb5

    Leszunk egy paran , ugy 153 - an

    C5                           G5

    Nem hagyhatjuk elveszni , az ejszakat

    G5                Bb5
[ Tab from: http://www.guitartabs.cc/tabs/s/sing_sing/halal_a_majra_tab.html ]
    Felverjuk majd az egesz hazat

    C5                       D5

    Athivjuk a szomszedbol a nagymamat

    D#5            F5

    Ooo , a tapetat leszedjuk a falrol

    G5                 Bb5

    Letepjuk a ruhat az osszes csajrol

    D#5       F5

    A sarokba dobjuk a rokat

    G5         Bb5

    Nyomjuk tovabb .


Chorus :

With Riff B


    G5                        Bb5

    Csinaljunk egy orult nagy bulit ma ejjel

    F5                   F5

    Allitsuk a falhoz az agysejteket

    G5                       Bb5

    Csinaljunk  egy hatalmas balhet , ma ejjel

    F5               F5

    A jelszo : Halal a majra , ezt ne felejtsd el

Riff A ( only 1 time )

Second verse :

Both guitar

    G5                 Bb5

    Magunkra rantjuk a haztetot

    C5                         G5

    Nagy duzzogva bevagunk egy par liter sort

    G5                Bb5

    Pocsolyamalackent fetrengunk a foldon

    C5                D5

    Megrofogtetunk ma minden not

    D#5             F5

    Ooo , a tapetat szedjuk le a falrol

    G5                   Bb5

    Tepjuk le a ruhat az osszes csajrol

    D#5      F5

    Dobjuk a sarokba a rokat

    G5         Bb5

    Nyomjuk tovabb !

Chorus ( 2 times )


Solo (my version) :

----------------------13-------------------------------13-----------------|
--13--16--13--16--13-------13-----13--16--13--16--13-------13---16--------|
--------------------------------------------------------------------------|
--------------------------------------------------------------------------|
--------------------------------------------------------------------------|
--------------------------------------------------------------------------|
     H  p   H    p                   H  p   H   p                B.

---16--13----------------------------------------------------------------|
-----------16--13-16-13--------------------------------------------------|
-------------------------15--13----------13~~~~~~~--------13--15---------|
---------------------------------13--15---------------15-----------------|
------------------------------------------------------15-----------------|
-------------------------------------------------------------------------|
                 h p                                  trem.picking


-------------------------------------------------------------------------|
---16--13--------------13--16--13----------------------------------------|
-----------15--13--15--------------15--13--15----------------------------|
---------------------------------------------------------------13--15----|
-------------------------------------------------------13--15------------|
-----------------------------------------------13--16--------------------|
half bend                half bend

------------------13--16-----|
----------13--16-------------|
--13--15---------------------|
-----------------------------|
-----------------------------|
-----------------------------|
                     whole bend

Chorus ( many times & fade out )
Comments