Sinead Quinn - Im Worth It Chords & Tabs

 

Im Worth It Chords & Tabs

Sinead Quinn Chords & Tabs

Version: 1 Type: Tab 0 ratings
1 star 2 stars 3 stars 4 stars 5 stars
comments

Im Worth It Tab

Sinead Quinn - I'm worth it INTRO
from : Ready to Run (2003)
[ Tab from: http://www.guitartabs.cc/tabs/s/sinead_quinn/im_worth_it_tab.html ]
||----------------------------------|------------------------------------|
||----------------------------------|------------------------------------|
||----------------------------------|------------------------------------|
||-------2--1--2--2-----------------|--------2--1--2--2------------------|
||----2--------------4--4--2--------|-----2--------------4--4--2---------|
||-0--------------------------------|--0---------------------------------|



||----------------------------------|------------------------------------|
||----------------------------------|------------------------------------|
||----------------------------------|-----------------1------------------|
||-------2--1--2--2-----------------|--------2--1--2-----2--1--2---------|
||----2--------------4--4--2--------|-----2------------------------------|
||-0--------------------------------|--0---------------------------------|

Th

Comments