Sinch - To Die In Fall Chords & Tabs

 

To Die In Fall Chords & Tabs

Sinch Chords & Tabs

Version: 2 Type: Tab

To Die In Fall Tab

   
Band: Sinch
Song: To Die In Fall
Album: Sinch

Drop D

Timing not shown

Intro

e----------------------------------1-1-1-1-0-0-------------0--|
B-------1---------1-------------1--------------------1--------|
G---2---------2-----2-2----2--------------------2------2-2----|
D-------------------------------------------------------------|
A-------------------------------------------------------------|
D-0---0-----0---0--------0---0-----------------0---0----------|


e----------3---------------0------------------5h8-5h8--------------0-|
B-------1------------1-------3--------1/6-6-6----------------1-------|
G---2------------2-----2-2--------2----------------------2-----2-2---|
D--------------------------------------------------------------------|
A--------------------------------------------------------------------|
D-0---0--------0---0------------0---0------------------0---0---------|

Next Riff (this one is realy hard to hear)

e--------------------------------|
B-------1---------------1--------|
G--------------------------------|
D--------------------------------|
A--------------------------------|
D-0-2-3--------0-0-2-3-----------|


e------------------------------------------------|
B------------------------------------------------|
G------------------------------------------------|
D-8-8-8-8-8-8-8-7-7-7-7-7-9-9--------------------|
A-8-8-8-8-8-8-8-7-7-7-7-7-9-9--------------------|
D-8-8-8-8-8-8-8-7-7-7-7-7-9-9--------------------|

e------------------------------------|
B-------1-1------1---------1-1-1h3-3-|
G------------------------------------|
D------------------------------------|
A------------------------------------|
D-0-1-3----0-1-3-----0-1-3-----------|

e------------------------------------------------|
B------------------------------------------------|
G------------------------------------------------|
D-8-8-8-8-8-8-8-7-7-7-7-7-9-9----3-3-3-0---------|
A-8-8-8-8-8-8-8-7-7-7-7-7-9-9----3-3-3-0---------|
D-8-8-8-8-8-8-8-7-7-7-7-7-9-9----3-3-3-0---------|
[ Tab from: http://www.guitartabs.cc/tabs/s/sinch/to_die_in_fall_tab_ver_2.html ]
e----------3--------------0----------------5h8-5h8--------------0-|
B-------1-----------1-------3------1/6-6-6----------------1-------|
G---2-----------2-----2-2------2----------------------2-----2-2---|
D-----------------------------------------------------------------|
A-----------------------------------------------------------------|
D-0---0-------0---0----------0---0------------------0---0---------|

e--------------------------------|
B-------1---------------1--------|
G--------------------------------|
D--------------------------------|
A--------------------------------|
D-0-2-3--------0-0-2-3-----------|

e------------------------------------------------|
B------------------------------------------------|
G------------------------------------------------|
D-8-8-8-8-8-8-8-7-7-7-7-7-9-9----3-3-3-0---------|
A-8-8-8-8-8-8-8-7-7-7-7-7-9-9----3-3-3-0---------|
D-8-8-8-8-8-8-8-7-7-7-7-7-9-9----3-3-3-0---------|

(i think theres something missing in this one)

e---------------------------------|
B--------------------------1-1----|
G---------------------------------|
D-0-0-0-0-2-2-2-3--0-0-0-0-----2--|
A-0-0-0-0----------0-0-0-0--------|
D-0-0-0-0----------0-0-0-0--------|

e--------------------------------|
B--------------------------------|
G--------------------------------|
D-0-5-7-8-8---0-5-8--------------|
A-0-5-7-8-8---0-5-8--------------|
D-0-5-7-8-8---0-5-8--------------|

e-----------------------|
B-----------------------|
G-----------------------|
D-0-0-0-2-2-2-3-3-5-5---|
A-0-0-0-2-2-2-3-3-5-5---|
D-0-0-0-2-2-2-3-3-5-5---|

e------------------------------------------------|
B------------------------------------------------|
G------------------------------------------------|
D-8-8-8-8-8-8-8-7-7-7-7-7-9-9----3-3-3-----------|
A-8-8-8-8-8-8-8-7-7-7-7-7-9-9----3-3-3-----------|
D-8-8-8-8-8-8-8-7-7-7-7-7-9-9----3-3-3-----------|
              				Let ring
e------------------------------------------------|
B------------------------------------------------|
G------------------------------------------------|
D-8-8-8-8-8-8-8-7-7-7-7-7-9-9----3-3-3-0---------|
A-8-8-8-8-8-8-8-7-7-7-7-7-9-9----3-3-3-0---------|
D-8-8-8-8-8-8-8-7-7-7-7-7-9-9----3-3-3-0---------|

I know its not 100% but hopefully it will inspire someone enough to figure it out..
any crying, comments and whining please send to hlynurhot@hotmail.com