Sinch - To Die In Fall Chords & Tabs

 

To Die In Fall Chords & Tabs

Sinch Chords & Tabs

Version: 1 Type: Tab 0 ratings
1 star 2 stars 3 stars 4 stars 5 stars
comments

To Die In Fall Tab

This is my first tab, so obviously it's pretty easy.
[ Tab from: http://www.guitartabs.cc/tabs/s/sinch/to_die_in_fall_tab.html ]
e|------------------------------------------------------------------------
b|------------------------------------------------------------------------
g|------------------------------0-0-00------------------------------------
d|-------0-------0-----------0---------2-2--------0-----------------------
a|---2-------2-----2-2---2--------------------2-----2---------------------
E|-0---0---0---0-------0---0----------------0---0-----0-------------------

e|------------------------------------------------------------------------
b|-----------------------------------0---0--------------------------------
g|-----------------------------0-0-----0---0------------------------------
d|-------0-------0-----------0-----0---------------0----------------------
a|---2-------2-----2-2---2---------------------2-----2-2------------------
E|-0---0---0---0-------0---0-----------------0---0------------------------

and thats pretty much it.
Comments