Sinch - The Silent Acquiescence Of Millions Chords & Tabs

 

The Silent Acquiescence Of Millions Chords & Tabs

Sinch Chords & Tabs

Version: 1 Type: Tab 0 ratings
1 star 2 stars 3 stars 4 stars 5 stars
comments

The Silent Acquiescence Of Millions Tab

During Intro along with bass but not for a while..
E|---------------------||
B|---------------------||
G|---------------------||
D|---(12)--------------||
A|------(12)-----------||
D|----------(15)--(12)-||X4



Verse 1
E|---------------------------------------------------------------------------||
B|---------------------------------------------------------------------------||
G|----5-5-5/(7)7---7\(5)5-x-5\(2)-2-x-2b3-2----------------------------------||
D|---------------------------------------------7\(5)-5-5-5\(3)-3-2h3-3-33----||
A|---------------------------------------------------------------------------||
D|---------------------------------------------------------------------------||


E|---------------------------------------------------------------------------||
B|---------------------------------------------------------------------------||
G|-------------------5---5---5/(7)7-7/(10)-10-10--10\(9)-9-9-9-\(7)-7-7-7----||
D|--3\(5)555\(7)-7-7---7---7-------------------------------------------------||
A|---------------------------------------------------------------------------||
D|---------------------------------------------------------------------------||


E|---------------------------------------------------------------------------||
B|--------------8-8-8-8------------------------------------------------------||
G|-7-7\(5)-5-5--5-5-5-5------------------------------------------------------||
D|---------------------------------------------------------------------------||
A|---------------------------------------------------------------------------||
D|---------------------------------------------------------------------------||

(Drums come in)
E|-------------------------------------||
B|----5-5-----5h6----------------------||
G|-----------------5-------------------||
D|--7------7---------------------------||
A|-------------------------------------||
D|-------------------------------------||x4

...........................................Build Up to chorus
E|--------------------------------------|---------10---------------10---------||
B|--------------------------------------|-------------------------------------||
G|------8-8-8-8-8-8-8-8-8-8-8-8-8-8-8-8-|-------------------------------------||
D|--5---5-5-5-5-5-5-5-5-5-5-5-5-5-5-5-5-|---10-12-----12--10--12-------12-----||
A|--------------------------------------|-------------------------------------||
D|--------------------------------------|-------------------------------------||

Dirty Sound
E|------------------||
B|------------------||
G|--12--12--12--12--||
D|------------------||
A|--10--10--10--10--||
D|------------------||

Chorus
E|--------------------------------------------------------||
B|--------------------------------------------------------||
G|--------------------------------------------------------||
D|---0--3--5-6-6-6--5-5---x-x-x---------------------------||
A|---0--3--5-6-6-6--5-5---x-x-x---------------------------||
D|---0--3--5-6-6-6--5-5---x-x-x---------------------------||x2



E|---------------------------------------------------------------------------||
B|---------------------------------------------------------------------------||
G|--5-5-55/(7)7---755\(2)2-22h(3)3-2-2---------------------------------------||
D|--------------------------------------2-2h(3)3--2h3-2--0-2--5--5h(7)-7-7---||
A|---------------------------------------------------------------------------||
D|---------------------------------------------------------------------------||


E|---------------------------------------------------------------------------||
B|---------------------------------------------------------------------------||
G|-------5---5/(7)77-7/10--10-10-10-\-9-99-9/12-12-12/(14)-14-14~~~~14\------||
D|--5h7----------------------------------------------------------------------||
A|---------------------------------------------------------------------------||
D|---------------------------------------------------------------------------||


E|-------------------------------------||
B|----5-5-----5h6----------------------||
G|-----------------5-------------------||
D|--7------7---------------------------||
A|-------------------------------------||
D|-------------------------------------||x4
[ Tab from: http://www.guitartabs.cc/tabs/s/sinch/the_silent_acquiescence_of_millions_tab.html ]
...........................................Build Up to chorus
E|--------------------------------------|---------10---------------10---------||
B|--------------------------------------|-------------------------------------||
G|------8-8-8-8-8-8-8-8-8-8-8-8-8-8-8-8-|-------------------------------------||
D|--5---5-5-5-5-5-5-5-5-5-5-5-5-5-5-5-5-|---10-12-----12--10--12-------12-----||
A|--------------------------------------|-------------------------------------||
D|--------------------------------------|-------------------------------------||

Dirty Sound
E|------------------||
B|------------------||
G|--12--12--12--12--||
D|------------------||
A|--10--10--10--10--||
D|------------------||

Chorus
E|--------------------------------------------------------||
B|--------------------------------------------------------||
G|--------------------------------------------------------||
D|---0--3--5-6-6-6--5-5---x-x-x---------------------------||
A|---0--3--5-6-6-6--5-5---x-x-x---------------------------||
D|---0--3--5-6-6-6--5-5---x-x-x---------------------------||x2



E|--------------------------------------------------------------------------||
B|--------------------------12-13-12-13-12-13-12-13-12-13-12-13-12-13-12-13-||
G|--<5>-let-ring------------------------------------------------------------||
D|--------------------------------------------------------------------------||
A|--------------------------------------------------------------------------||
D|--------------------------------------------------------------------------||



E|--------------------------------|----------------------------|------------||
B|--------------------------------|----------------------------|------------||
G|--------------------------------|---------------------xxxxx--|------------||
D|--6\5-00--0--6\5--00--0--6\5--0-|--6\5-00-0---6\5-0---xxxxx--|--6\5--00-0-||
A|--6\5-00--0--6\5--00--0--6\5--0-|--6\5-00-0---6\5-0---xxxxx--|--6\5--00-0-||
D|--6\5-00--0--6\5--00--0--6\5--0-|--6\5-00-0---6\5-0---xxxxx--|--6\5--00-0-||



                         [ Play first time ]           [ Play second time ]
E|--------------------|---------------------------|----------------------------||
B|--------------------|-------------xxxxxxxxx-----|----------------------------||
G|--------------------|-------------xxxxxxxxx-----|----------------------------||
D|--6\5-00--0---6\5-0-|--6\5--00----xxxxxxxxx-----|----6\5-0--6\5--0--6\5------||
A|--6\5-00--0---6\5-0-|--6\5--00----xxxxxxxxx-----|----6\5-0--6\5--0--6\5------||
D|--6\5-00--0---6\5-0-|--6\5--00----xxxxxxxxx-----|----6\5-0--6\5--0--6\5-0----||



  [ 16x   ]      strum all this quietly 
E|-----------|-----------------------------------||
B|-----------|-----------------------------------||
G|-----------|---7----5----2--3--2---9---10------||
D|----7------|-----------------------------------||
A|--0-5-6----|-----------------------7---8-------||
D|--0---6----|-----------------------------------||

E|--------------------|-----------------------------------------||
B|----5-5-----5h6-----|----5-5----5h6---8--888888888888888------||
G|-----------------5--|-----------------5--555555555555555------||
D|--7------7----------|--7------7-------------------------------||
A|--------------------|-----------------------------------------||
D|--------------------|-----------------------------------------||




E|---------------------------------------------------------------------------||
B|---------------------------------------------------------------------------||
G|---------------------------------------------------------------------------||
D|---------------------------------------------------------------------------||
A|---------------------------------------------------------------------------||
D|----0--\-----\---\------\----\-----\------\------\------\------\-----------||

E|--------------------------------|----------------------------|------------||
B|--------------------------------|----------------------------|------------||
G|--------------------------------|---------------------xxxxx--|------------||
D|--6\5-00--0--6\5--00--0--6\5--0-|--6\5-00-0---6\5-0---xxxxx--|--6\5--00-0-||
A|--6\5-00--0--6\5--00--0--6\5--0-|--6\5-00-0---6\5-0---xxxxx--|--6\5--00-0-||
D|--6\5-00--0--6\5--00--0--6\5--0-|--6\5-00-0---6\5-0---xxxxx--|--6\5--00-0-||



                         [ Play first time ]           [ Play second time ]
E|--------------------|---------------------------|----------------------------||
B|--------------------|-------------xxxxxxxxx-----|----------------------------||
G|--------------------|-------------xxxxxxxxx-----|----------------------------||
D|--6\5-00--0---6\5-0-|--6\5--00----xxxxxxxxx-----|----6\5-0--6\5--0--6\5------||
A|--6\5-00--0---6\5-0-|--6\5--00----xxxxxxxxx-----|----6\5-0--6\5--0--6\5------||
D|--6\5-00--0---6\5-0-|--6\5--00----xxxxxxxxx-----|----6\5-0--6\5--0--6\5-0----||




E|------------------||
B|------------------||
G|------------------||
D|-----7------------||
A|--0--5--6---------||
D|--0-----6---------||
Comments