Sinch - Something More Chords & Tabs

 

Something More Chords & Tabs

Sinch Chords & Tabs

Version: 2 Type: Tab 0 ratings
1 star 2 stars 3 stars 4 stars 5 stars
comments

Something More Tab

   
Song title: "Something more"
Artist: Sinch
Tabbed by James

Intro and Verses:

e------------------------------------------
B------------------------------------------
G------5-------5---------------------------
D----7---7---7---7---------7---8-----------
A--5-------5-------------7---8---10--------
E----------------------5---6---8-----------

Chorus:
[ Tab from: http://www.guitartabs.cc/tabs/s/sinch/something_more_tab_ver_2.html ]
e---------------------------------------------------------------------------------
B---------------------------------------------------------------------------------
G---------------------------------------------------------------------------------
D--8-8-8-8--7-7-7-10-10-10---8-8-8-8--3-3-3-10-10-10---8-8-8-8--7-7-7-10-10-10--12 You need
A--8-8-8-8--7-7-7-10-10-10---8-8-8-8--3-3-3-10-10-10---8-8-8-8--7-7-7-10-10-10--12 to strum
E--6-6-6-6--5-5-5-8--8--8----6-6-6-6--1-1-1-8--8--8----6-6-6-6--5-5-5-8--8--8---10 around on
                                                                                   on this
                                                                                   last
                                                                                   chord for
                                                                                   a bit.

Bridge:

e-----------------------------------------
B-----------------------------------------
G-----------------------------------------
D--2-2-2--3-3-3--7-7-7---2-2-3-3-7-7------
A--O-O-O--3-3-3--7-7-7---O-O-3-3-7-7------
E--O-O-O--1-1-1--5-5-5---O-O-1-1-5-5------


Ending Bridge (very last part of the song):

e---------------------------
B---------------------------
G---------------------------
D--7-7-7--8-8-8--3-3-2------Let the last chord ring for a little before you repeat it.
A--7-7-7--8-8-8--3-3-O------
E--5-5-5--6-6-6--1-1-O------

Order of play:

Intro
Verse
Chorus
Verse
Chorus
Bridge
Verse
Chorus
Bridge
Ending Bridge.

Thats about the whole song.  

                             Enjoy!!!!!!
Comments