Sinch - Something More Acoustic Chords & Tabs

 

Something More Acoustic Chords & Tabs

Sinch Chords & Tabs

Version: 1 Type: Tab 0 ratings
1 star 2 stars 3 stars 4 stars 5 stars
comments

Something More Acoustic Tab

-------------------------------------------------------------------------------
		    "Something More" by Sinch
-------------------------------------------------------------------------------
This is my version of Something More (Acoustic Version) by Sinch
This version might be easier to play than the previous version.
Please correct this tab if needed!!  I know its close but not perfect.

Tabbed by: DjZero9
Email: djzero9@hotmail.com

Tuning:  Drop D

Intro / Verse 1
e|--------------------------------|
B|--------------------------------|
G|--------------------------------|
D|-----10------10----7--8---------|
A|---12--12--12--12-7--8-8--------|
D|-12------12------7--8---8-------| x3

e|--------------------------------|
B|--------------------------------|
G|--------------------------------|
D|-----10------10-----------------|
A|---12--12--12--12---------------|
D|-12------12------12-------------| 

e|--------------------------------|
B|--------------------------------|
G|--------------------------------|
D|-----10------10----7--8---------|
A|---12--12--12--12-7--8-8--------|
D|-12------12------7--8---8-------| x3

e|--------------------------------|
B|--------------------------------|
G|--------------------------------|
D|-----10------10------10---0-0---|
A|---12--12--12--12--12-----0-0---|
D|-12------12------12-------0-0---|



Chorus 1 
e|--------------------------------|
B|--------------------------------|
G|--------------------------------|
D|-8-8-8-8-8-8-7-7-7-10-10-10-----|
A|-8-8-8-8-8-8-7-7-7-10-10-10-----|
D|-8-8-8-8-8-8-7-7-7-10-10-10-----|

e|--------------------------------|
B|--------------------------------|
G|--------------------------------|
D|-8-8-8-8-8-8-3-3-3-10-10-10-----|
A|-8-8-8-8-8-8-3-3-3-10-10-10-----|
D|-8-8-8-8-8-8-3-3-3-10-10-10-----|

e|--------------------------------|
B|--------------------------------|
G|--------------------------------|
D|-8-8-8-8-8-8-7-7-7-10-10-10-----|
A|-8-8-8-8-8-8-7-7-7-10-10-10-----|
D|-8-8-8-8-8-8-7-7-7-10-10-10-----|

e|--------------------------------|
B|--------------------------------|
G|--------------------------------|
D|-12-12-12-12-12-12-12-12-12-----|
A|-12-12-12-12-12-12-12-12-12-----|
D|-12-12-12-12-12-12-12-12-12-----|

e|--------------------------------|
B|--------------------------------|
G|--------------------------------|
D|-8-8-8-8-8-8-7-7-7-10-10-10-----|
A|-8-8-8-8-8-8-7-7-7-10-10-10-----|
D|-8-8-8-8-8-8-7-7-7-10-10-10-----|

e|--------------------------------|
B|--------------------------------|
G|--------------------------------|
D|-8-8-8-8-8-8-3-3-3-10-10-10-----|
A|-8-8-8-8-8-8-3-3-3-10-10-10-----|
D|-8-8-8-8-8-8-3-3-3-10-10-10-----|

e|--------------------------------|
B|--------------------------------|
G|--------------------------------|
D|-8-8-8-8-8-8-7-7-7-10-10-10-----|
A|-8-8-8-8-8-8-7-7-7-10-10-10-----|
D|-8-8-8-8-8-8-7-7-7-10-10-10-----|

e|--------------------------------|
B|--------------------------------|
G|--------------------------------|
D|-12-12-12-12-12-12-12-12-12-----|
A|-12-12-12-12-12-12-12-12-12-----|
D|-12-12-12-12-12-12-12-12-12-----|


Verse 2
e|--------------------------------|
B|--------------------------------|
G|--------------------------------|
D|-----10------10----7--8---------|
A|---12--12--12--12-7--8-8--------|
D|-12------12------7--8---8-------| x8

e|--------------------------------|
B|--------------------------------|
G|--------------------------------|
D|-----10------10------10---------|
A|---12--12--12--12--12--12-------|
D|-12------12------12------12-----|


Chorus 2 
e|--------------------------------|
B|--------------------------------|
G|--------------------------------|
D|-8-8-8-8-8-8-7-7-7-10-10-10-----|
A|-8-8-8-8-8-8-7-7-7-10-10-10-----|
D|-8-8-8-8-8-8-7-7-7-10-10-10-----|

e|--------------------------------|
B|--------------------------------|
G|--------------------------------|
D|-8-8-8-8-8-8-3-3-3-10-10-10-----|
A|-8-8-8-8-8-8-3-3-3-10-10-10-----|
D|-8-8-8-8-8-8-3-3-3-10-10-10-----|

e|--------------------------------|
B|--------------------------------|
G|--------------------------------|
D|-8-8-8-8-8-8-7-7-7-10-10-10-----|
A|-8-8-8-8-8-8-7-7-7-10-10-10-----|
D|-8-8-8-8-8-8-7-7-7-10-10-10-----|

e|--------------------------------|
B|--------------------------------|
G|--------------------------------|
D|-12-12-12-12-12-12-12-12-12-----|
A|-12-12-12-12-12-12-12-12-12-----|
D|-12-12-12-12-12-12-12-12-12-----|

e|--------------------------------|
B|--------------------------------|
G|--------------------------------|
D|-8-8-8-8-8-8-7-7-7-10-10-10-----|
A|-8-8-8-8-8-8-7-7-7-10-10-10-----|
D|-8-8-8-8-8-8-7-7-7-10-10-10-----|
[ Tab from: http://www.guitartabs.cc/tabs/s/sinch/something_more_acoustic_tab.html ]
e|--------------------------------|
B|--------------------------------|
G|--------------------------------|
D|-8-8-8-8-8-8-3-3-3-10-10-10-----|
A|-8-8-8-8-8-8-3-3-3-10-10-10-----|
D|-8-8-8-8-8-8-3-3-3-10-10-10-----|

e|--------------------------------|
B|--------------------------------|
G|--------------------------------|
D|-8-8-8-8-8-8-7-7-7-10-10-10-----|
A|-8-8-8-8-8-8-7-7-7-10-10-10-----|
D|-8-8-8-8-8-8-7-7-7-10-10-10-----|

e|--------------------------------|
B|--------------------------------|
G|--------------------------------|
D|-5-5-5-7-7-7-9-9-9-10-10-10-10--|
A|-5-5-5-7-7-7-9-9-9-10-10-10-10--|
D|-5-5-5-7-7-7-9-9-9-10-10-10-10--|


Bridge Part
e|--------------------------------|
B|--------------------------------|
G|--------------------------------|
D|-0-0-0-3-3-3-7-0-0-3-7----------|
A|-0-0-0-3-3-3-7-0-0-3-7----------|
D|-0-0-0-3-3-3-7-0-0-3-7----------| x8

Fill 1
e|--------------------------------|
B|--------------------------------|
G|--------------------------------|
D|-----10------10----7--8---------|
A|---12--12--12--12-7--8-8--------|
D|-12------12------7--8---8-------|

e|--------------------------------|
B|--------------------------------|
G|--------------------------------|
D|-----10------10------10---------|
A|---12--12--12--12--12--12-------|
D|-12------12------12------12-----|

Chorus 3
e|--------------------------------|
B|--------------------------------|
G|--------------------------------|
D|-8-8-8-8-8-8-7-7-7-10-10-10-----|
A|-8-8-8-8-8-8-7-7-7-10-10-10-----|
D|-8-8-8-8-8-8-7-7-7-10-10-10-----|

e|--------------------------------|
B|--------------------------------|
G|--------------------------------|
D|-8-8-8-8-8-8-3-3-3-10-10-10-----|
A|-8-8-8-8-8-8-3-3-3-10-10-10-----|
D|-8-8-8-8-8-8-3-3-3-10-10-10-----|

e|--------------------------------|
B|--------------------------------|
G|--------------------------------|
D|-8-8-8-8-8-8-7-7-7-10-10-10-----|
A|-8-8-8-8-8-8-7-7-7-10-10-10-----|
D|-8-8-8-8-8-8-7-7-7-10-10-10-----|

e|--------------------------------|
B|--------------------------------|
G|--------------------------------|
D|-12-12-12-12-12-12-12-12-12-----|
A|-12-12-12-12-12-12-12-12-12-----|
D|-12-12-12-12-12-12-12-12-12-----|

e|--------------------------------|
B|--------------------------------|
G|--------------------------------|
D|-8-8-8-8-8-8-7-7-7-10-10-10-----|
A|-8-8-8-8-8-8-7-7-7-10-10-10-----|
D|-8-8-8-8-8-8-7-7-7-10-10-10-----|

e|--------------------------------|
B|--------------------------------|
G|--------------------------------|
D|-8-8-8-8-8-8-3-3-3-10-10-10-----|
A|-8-8-8-8-8-8-3-3-3-10-10-10-----|
D|-8-8-8-8-8-8-3-3-3-10-10-10-----|

e|--------------------------------|
B|--------------------------------|
G|--------------------------------|
D|-8-8-8-8-8-8-7-7-7-10-10-10-----|
A|-8-8-8-8-8-8-7-7-7-10-10-10-----|
D|-8-8-8-8-8-8-7-7-7-10-10-10-----|

e|--------------------------------|
B|--------------------------------|
G|--------------------------------|
D|-5-5-5-7-7-7-9-9-9-10-10-10-10--|
A|-5-5-5-7-7-7-9-9-9-10-10-10-10--|
D|-5-5-5-7-7-7-9-9-9-10-10-10-10--|

e|--------------------------------|
B|--------------------------------|
G|--------------------------------|
D|-0-0-0-3-3-3-7-0-0-3-7----------|
A|-0-0-0-3-3-3-7-0-0-3-7----------|
D|-0-0-0-3-3-3-7-0-0-3-7----------| x4

Outro
e|--------------------------------|
B|--------------------------------|
G|--------------------------------|
D|-----10------10----7--8---------|
A|---12--12--12--12-7--8-8--------|
D|-12------12------7--8---8-------| x6 Slow on the last one


Lyrics
The worst is yet to come, so vulnerable and dumb say the words and I'll dissolve
Tell me how long should this last I've been forgetting how to act and
These memories will burn like gasoline
And I believe there's something more cause this isn't what I've been looking for
If I blink my eyes I'm afraid I might miss some of it
This makes no sense a mirage of an oasis but it kills my time
Well try to remember what I sought, I never gave it that much thought
Does it really matter at all, cause there really is no time for opening up my eyes
Cause you know that I have seen it all before
And I believe there's something more cause this isn't what I've been looking for
If I blink my eyes I'm afraid I might miss some of it
This makes no sense a mirage of an oasis but it kills my time
Well I wish I could always feel this good, I wish that I could always feel this way,
Wish I could always feel this good, wish that I could always know what's out there
Cause I believe there's something more, cause this isn't what I've been looking for
If I blink my eyes I'm afraid I might miss some of it this
This makes no sense a mirage of an oasis but it kills my time
I wish I could always feel this good, I wish that I could always feel this way,
I wish I could always feel this good, wish that I could be imitating the screen
imitating the screen if you hate something it goes away if you hate something
then just wait. 
===============================================================================
Comments