Simpson Ashlee - Autobiography Chords & Tabs

 

Autobiography Chords & Tabs

Simpson Ashlee Chords & Tabs

Version: 1 Type: Tab 4 ratings
1 star 2 stars 3 stars 4 stars 5 stars
comments

Autobiography Tab

Autobiography by ashlee simpson
listen to the song to get the timing right. there is some palm muting
involved in between strikes.
Intro and verse
E--------------------------------------------------------
B--------777---5---777---5-------------------------------
G---------------------------666--4---666--4--------------
D--------------------------------------------------------	
A--------------------------------------------------------
E--------------------------------------------------------
[ Tab from: http://www.guitartabs.cc/tabs/s/simpson_ashlee/autobiography_tab.html ]
“Iwalked a thousand miles…”
e----------------------------------------------------------------------------------------------------------
b----------------------------------------------------------------------------------------------------------
g----------4444-----------------66-------44-----------------------------------------------------
d---4444---4444------2222-------66-------44------------------------------------------------------
a---4444---2222----- 2222------ 44-----  22------------------------------------------------ ----
E---2222-------------0000---------------------------------------------------------------------------

Chorus: these are the chords, listen to the song to learn the # of times each one is hit.
e-------------------------------------------------------
B-------------------------------------------------------
G---2---6-------4-------7-------9-----------------------
D---2---6-------4-------7-------9-----------------------
A---0---4-------2-------5-------7-----------------------
E-------------------------------------------------------

Comments