Simpliztick 341 - One Love Chords & Tabs

 

One Love Chords & Tabs

Simpliztick 341 Chords & Tabs

Version: 1 Type: Tab 0 ratings
1 star 2 stars 3 stars 4 stars 5 stars
comments

One Love Tab

Artist:Simpliztick 341
Song: One love
Tabbed by: Drew




Intro:
e--------------------------|-------------------------|------------------
B-----------0--------------|--1----0-----------------|-----0------------
G----------------0--2----0-| ------------0--2-----0--|---------0--2---0-
D-------2--------------2---|-----2----2--------2-----|---2----------2---
A----0---------------------|-------------------------|-0----------------
E--------------------------|-------------------------|------------------

e -------------------------
B---1----0----------------:
G-------------0--2---------
D------2----2--------------
A------------------3--2---:
E--------------------------


Verse one:
e--------------------------
B-----0-1------------------
G--------------------------
D---2-------(2)-(0h2p0)----
A-0------------------------
E--------------------------

E---------------------------------------------
B---------------------------------------------
G--------(0)-------(0)--------(0)------9------
D------2---------5----------7-------------10--
A----2---------5----------7---------10--------
E--0---------3----------5---------8-----------

Chorus:
-----------------
-----------------
-------------5---
-------------5---
-----5-----------
-5h7---7-5h7-----4X

Verse two: 2X
e--------------------------
B-----0-1------------------
G--------------------------
D---2-------(2)-(0h2p0)----
A-0------------------------
E--------------------------

E---------------------------------------------
B---------------------------------------------
G--------(0)-------(0)--------(0)------9------
D------2---------5----------7-------------10--
A----2---------5----------7---------10--------
E--0---------3----------5---------8-----------

Chorus:
-----------------
-----------------
-------------5---
-------------5---
-----5-----------
-5h7---7-5h7-----4X
[ Tab from: http://www.guitartabs.cc/tabs/s/simpliztick_341/one_love_tab.html ]
Bridge:
|--------|----------|--------|----------|
|--------|----------|--------|----------|
|--------|----------|--------|--------3-|
|---3--2-|---3--2---|---3--2-|---3--2---|
|--------|-------3--|--------|----------|
|--------|----------|--------|----------|
|-3------|-3--------|-3------|-3--------|

|--------|----------|--------|----------|
|--------|----------|--------|----------|
|--------|----------|--------|----------|
|--------|----------|--------|----------|
|--------|----------|--------|--------3-|
|---1--0-|---1-0----|---1--0-|---1--0---|
|-3------|-3-----1--|-3------|-3--------|

Verse three:2X
e--------------------------
B-----0-1------------------
G--------------------------
D---2-------(2)-(0h2p0)----
A-0------------------------
E--------------------------

E---------------------------------------------
B---------------------------------------------
G--------(0)-------(0)--------(0)------9------
D------2---------5----------7-------------10--
A----2---------5----------7---------10--------
E--0---------3----------5---------8-----------

Chorus:
-----------------
-----------------
-------------5---
-------------5---
-----5-----------
-5h7---7-5h7-----4X


  It's been a mystery, and still they try to see
  Why somethin' good can hurt so bad
  Caught on a one-way street, the taste of bittersweet
  Love will survive somehow some way

  One love feeds the fire
  One heart burns desire
  I wonder, who's cryin' now
  Two hearts born to run
  Who'll be the lonely one
  I wonder, who's crying now

  So many stormy nights, so many wrongs or rights
  Neither could change their
  Headstrong ways
  And in a lover's rage, they tore another page
  The fightin' is worth the love they save...

  One love feeds the fire
  One heart burns desire
  I wonder, who's cryin' now
  Two hearts born to run
  Who'll be the lonely one
  I wonder who's crying now

  Only so many tears you can cry
  'till the heartache is over
  And now you can say your love....
  Will never die...

  One love feeds the fire
  One heart burns desire
  I wonder, who's cryin' now
  Two hearts born to run
  Who'll be the lonely one
  I wonder who's crying now

Comments