Simpliztick 341 - Hell Chords & Tabs

 

Hell Chords & Tabs

Simpliztick 341 Chords & Tabs

Version: 1 Type: Tab 0 ratings
1 star 2 stars 3 stars 4 stars 5 stars
comments

Hell Tab

Artist: Simpliztick 341
Song: Hell
Tabbed by: Drew

Intro:
e:--------------------------------|
B:--------------------------------|
G:--------4------4------4------4~-|
D:-----4-------4------4------4----|
A:--2-------0-------------0-------|
E:-----------------3--------------| 2X

Verse:
e:--------------------------------|
B:--------------------------------|
G:--------4------4------4------4~-|
D:-----4-------4------4------4----|
A:--2-------0-------------0-------|
E:-----------------3--------------| 4X

Chorus:
e:----------------------------|---------------------------|
B:----------------------------|---------------------------|
G:--4-4------------2-2--------|---------------------------|
D:--4-4-----5-5----2-2----2-2-|----(2)--------------------|
A:--2-2-----5-5----0-0----2-2-|----(2)--------------------|
E:----------3-3-----------0-0-|----(0)--------------------| 3X

e:----------------------------|---------------------------|
B:----------------------------|---------------------------|
G:--4-4------------2-2----7-7-|---------------------------|
D:--4-4-----5-5----2-2----7-7-|----(2)--------------------|
A:--2-2-----5-5----0-0----5-5-|----(2)--------------------|
E:----------3-3---------------|----(0)--------------------|

Verse:
e:--------------------------------|
B:--------------------------------|
G:--------4------4------4------4~-|
D:-----4-------4------4------4----|
A:--2-------0-------------0-------|
E:-----------------3--------------| 4X

Chorus:
e:----------------------------|---------------------------|
B:----------------------------|---------------------------|
G:--4-4------------2-2--------|---------------------------|
D:--4-4-----5-5----2-2----2-2-|----(2)--------------------|
A:--2-2-----5-5----0-0----2-2-|----(2)--------------------|
E:----------3-3-----------0-0-|----(0)--------------------| 3X
[ Tab from: http://www.guitartabs.cc/tabs/s/simpliztick_341/hell_tab.html ]
e:----------------------------|---------------------------|
B:----------------------------|---------------------------|
G:--4-4------------2-2----7-7-|---------------------------|
D:--4-4-----5-5----2-2----7-7-|----(2)--------------------|
A:--2-2-----5-5----0-0----5-5-|----(2)--------------------|
E:----------3-3---------------|----(0)--------------------|

-------------------------------------
-------------------------------------
-------------------------------------
-2--4^---2------3--------------------
-2--4^---2----3----7--5--0--3--5--0--
-0--2^---0-1-------7--5--0--3--5--0--2X

Verse:
e:--------------------------------|
B:--------------------------------|
G:--------4------4------4------4~-|
D:-----4-------4------4------4----|
A:--2-------0-------------0-------|
E:-----------------3--------------| 4X

Chorus:
e:----------------------------|---------------------------|
B:----------------------------|---------------------------|
G:--4-4------------2-2--------|---------------------------|
D:--4-4-----5-5----2-2----2-2-|----(2)--------------------|
A:--2-2-----5-5----0-0----2-2-|----(2)--------------------|
E:----------3-3-----------0-0-|----(0)--------------------| 3X

e:----------------------------|---------------------------|
B:----------------------------|---------------------------|
G:--4-4------------2-2----7-7-|---------------------------|
D:--4-4-----5-5----2-2----7-7-|----(2)--------------------|
A:--2-2-----5-5----0-0----5-5-|----(2)--------------------|
E:----------3-3---------------|----(0)--------------------|

Verse one:
	I see you there, suffering.
	Your lungs are failing, as you call to me.
	I look at you, you're screaming in pain.
	I could tell you I told you so.
	But that wouldn't be right, welcome to hell.
Chorus:
	You're crying in pain,I'm watching your life slip away.
	I am watching you die, slipping from my grasp.
	I can't do anything, as you cry out and curse.
	I hear the screams of the walking dead.
	You didn't choose right, slipping into hell.
Verse two:
	You once lived as many do.
	I tried to help, to warn you.
	But you  wouldn't have it.
	You turned your back away.
	Through all of this, all that I can say is
	Welcome to hell.

Verse three:
	I see you there, suffering.
	Your lungs are failing, as you call to me.
	I look at you, you're screaming in pain.
	I could tell you I told you so.
	But that wouldn't be right, welcome to hell.
Comments