Simpliztick 341 - Ghetto World Chords & Tabs

 

Ghetto World Chords & Tabs

Simpliztick 341 Chords & Tabs

Version: 1 Type: Tab 0 ratings
1 star 2 stars 3 stars 4 stars 5 stars
comments

Ghetto World Tab

Song: Ghetto world
Artist: Simpliztick
tabbed by: Drew Span

Intro:
E|----------------------------------------------|
B|----------------------------------------------|
G|----------12-11------------12-11--------------|
D|--12-10-0-------0-12-10-0---------------------|
A|0--------------------------------12--10--12--|
E|----------------------------------------------|

Verse one:
E|---------------------------------
B|---------------------------------
G|---------------------------------
D|--2-2---9--7-----------5--------- 4X
A|--2-2---------6--5--6------------
E|--0-0----------------------------

Chorus:
E|---------------------------------------------------|
B|---------------------------------------------------|
G|---------------------3-3---------------------6-6---|
D|-5-5-3-5-5-5-5-5-3-5-3-3-5-5-3-5-5-5-5-5-3-5-6-6---|
A|-5-5-3-5-5-5-5-5-3-5-1-1-5-5-3-5-5-5-5-5-3-5-4-4---|
E|-3-3-1-3-3-3-3-3-1-3-----3-3-1-3-3-3-3-3-1-3-------|

E|---------------------------------------------------|
B|---------------------------------------------------|
G|---------------------3-3---------------------6-6---|
D|-5-5-3-5-5-5-5-5-3-5-3-3-5-5-3-5-5-5-5-5-3-5-6-6---|
A|-5-5-3-5-5-5-5-5-3-5-1-1-5-5-3-5-5-5-5-5-3-5-4-4---|
E|-3-3-1-3-3-3-3-3-1-3-----3-3-1-3-3-3-3-3-1-3-------|

Verse two:
E|---------------------------------
B|---------------------------------
G|---------------------------------
D|--2-2---9--7-----------5--------- 4X
A|--2-2---------6--5--6------------
E|--0-0----------------------------
[ Tab from: http://www.guitartabs.cc/tabs/s/simpliztick_341/ghetto_world_tab.html ]
Chorus:
E|---------------------------------------------------|
B|---------------------------------------------------|
G|---------------------3-3---------------------6-6---|
D|-5-5-3-5-5-5-5-5-3-5-3-3-5-5-3-5-5-5-5-5-3-5-6-6---|
A|-5-5-3-5-5-5-5-5-3-5-1-1-5-5-3-5-5-5-5-5-3-5-4-4---|
E|-3-3-1-3-3-3-3-3-1-3-----3-3-1-3-3-3-3-3-1-3-------|

E|---------------------------------------------------|
B|---------------------------------------------------|
G|---------------------3-3---------------------6-6---|
D|-5-5-3-5-5-5-5-5-3-5-3-3-5-5-3-5-5-5-5-5-3-5-6-6---|
A|-5-5-3-5-5-5-5-5-3-5-1-1-5-5-3-5-5-5-5-5-3-5-4-4---|
E|-3-3-1-3-3-3-3-3-1-3-----3-3-1-3-3-3-3-3-1-3-------|

Verse one:
It's a conspiracy,the world falls into despair
I can't hold on forever, as the humanity slips away
Destruction and havock wreek around me
The dead scream in my mind,a ghetto world.

Chorus:
Long way down,I don't think I'll make it on my own 
Long way down,I don't want to live in here alone 
Long way down,I don't think I'll make it on my own
Long way down,I need someone to hold me close.

Verse two:
It's a conspiracy,the world falls into despair
I can't hold on forever, as the humanity slips away
Destruction and havock wreek around me
The dead scream in my mind,a ghetto world.

Chorus:
Long way down,I don't think I'll make it on my own 
Long way down,I don't want to live in here alone 
Long way down,I don't think I'll make it on my own
Long way down,I need someone to hold me close.

Bridge:
Satan's living hell destroys!4X
Comments