Simpliztick - Old School Rock And Roll Chords & Tabs

 

Old School Rock And Roll Chords & Tabs

Simpliztick Chords & Tabs

Version: 1 Type: Tab 0 ratings
1 star 2 stars 3 stars 4 stars 5 stars
comments

Old School Rock And Roll Tab

Tabbed by:Drew
Song:Old school Rock and Roll
Artist:Simpliztick 341

--------------------3p0---0-------------------------3p0-3h5p3-0---
------------------------3---3p0-3~------------------------------3-
--------xxxx-7---------------------------xxxx-7-------------------
--2--2--xxxx-7-x-7-----------------2--2--xxxx-7-x-7---------------
--2--2--xxxx-5-x-7-----------------2--2--xxxx-5-x-7---------------
--0--0---------x-5-----------------0--0---------x-5---------------6X


----5-5-----5-5-----5-5----5-5--8p5---5-8~-5~-8/10-8-10^-10-
----5-5-----5-5-----5-5----5-5------8---8~-5~-8/10----------
-7^------7^------7^-----7^----------------------------------
------------------------------------------------------------
------------------------------------------------------------
------------------------------------------------------------

-8-------8^--10p8-/5--8^)8-5---5-----------------------
---10~~~-----10p8-/5---------8---8-5--------------5----
-------------------------------------8-7-5~---5h7------
--------------------------------------------7-------7--
-------------------------------------------------------
-------------------------------------------------------

--------------------3p0---0-------------------------3p0-3h5p3-0---
------------------------3---3p0-3~------------------------------3-
--------xxxx-7---------------------------xxxx-7-------------------
--2--2--xxxx-7-x-7-----------------2--2--xxxx-7-x-7---------------
--2--2--xxxx-5-x-7-----------------2--2--xxxx-5-x-7---------------
--0--0---------x-5-----------------0--0---------x-5---------------8X

-----5-5------5-5------5-5------5-5--8p5-8/10/8p5-
-----5-5------5-5------5-5------5-5---------------
--7^------7^-------7^-------7^--------------------
--------------------------------------------------
--------------------------------------------------
--------------------------------------------------

8-8-5-8/10-8-10^--10-9-8--------8/7/5-3/5--8p7-5--
8-8---8/10----------------10~~~-------------------
--------------------------------------------------
--------------------------------------------------
--------------------------------------------------
--------------------------------------------------
[ Tab from: http://www.guitartabs.cc/tabs/s/simpliztick/old_school_rock_and_roll_tab.html ]
---5-------------------------5-5------5-5------5-5------5-5-
-8---8-7p5---5---------------5-5------5-5------5-5------5-5-
-----------7---7^-7-5-----7^------7^-------7^-------7^------
---------------7^-7-5-7-------------------------------------
----------------------7-------------------------------------
------------------------------------------------------------

------5-8p5--------/5-5-5-5-5---------------------------------
----5----------5-7-/5-5-5-5-5-7-5-------------10-10-----10-10-
-7b---------/6----------------7-5-6-5~-7~-/11-------/11-------
----------------------------------7---------------------------
--------------------------------------------------------------
--------------------------------------------------------------

-10b--10-8---------------5-------------------10-12----------------
-----------10-8-10-----5---/10-----10----12b-------12b-10h12----10
-------------------5h6---------/11----11---------------------11---
------------------------------------------------------------------
------------------------------------------------------------------
------------------------------------------------------------------

-15^-15-----------------------------8p5---5-8~-5~-8/10-8-10^-10-
--------15-13^------17~-----------------8---8~-5~-8/10----------
---------------14~--17~--17^-15-14~-----------------------------
----------------------------------------------------------------
----------------------------------------------------------------
----------------------------------------------------------------

-8-------8^--10p8-/5--8^)8-5---5--------5-5----5-5----5-5----5-5-
---10~~~-----10p8-/5---------8---8-5----5-5----5-5----5-5----5-5-
-------------------------------------7^-----7^-----7^-----7^-----
-----------------------------------------------------------------
-----------------------------------------------------------------
-----------------------------------------------------------------

----5-5-----5-5-----5-5----5-5--8p5---5-8~-5~-8/10-8-10^-10-
----5-5-----5-5-----5-5----5-5------8---8~-5~-8/10----------
-7^------7^------7^-----7^----------------------------------
------------------------------------------------------------
------------------------------------------------------------
------------------------------------------------------------

-8-------8^--10p8-/5--8^)8-5---5-----------------------
---10~~~-----10p8-/5---------8---8-5--------------5----
-------------------------------------8-7-5~---5h7------
--------------------------------------------7-------7--
-------------------------------------------------------
-------------------------------------------------------

-8p5---5-------------------------------------
-----8---8p5---5-----------------------------
-------------8---8p7-5---5-------------------
-----------------------7---7p5---5-----------
-------------------------------7---7-6-5-----
-----------------------------------------8-5-
Comments