Simple Plan - When Im With You Chords & Tabs

 

When Im With You Chords & Tabs

Simple Plan Chords & Tabs

Version: 3 Type: Tab 0 ratings
1 star 2 stars 3 stars 4 stars 5 stars
comments

When Im With You Tab

SIMPLE PLAN
"WHEN I'M WITH YOU"
TABBED BY: JUSTIN ZOLTEK OF PLAN 2
DROP D TUNING

pm . . = plam mute
/ or \ = slide
~ = hold note, let ring out

INTRO
----------------------|-----------------------|
----------------------|-----------------------|
-6-7-7-6-7-6-6\-4-4-4-|-6-7-7-6-7-11-11\9-9-9-|
-x-x-x-x-x-x-x\-x-x-x-|-x-x-x-x-x-x---x\x-x-x-|
-4-5-5-4-5-4-4\-2-2-2-|-4-5-5-4-5-9---9\7-7-7-|
----------------------|-----------------------|

VERSE
-----------------------------------|-------------------
-----------------------------------|-------------------
-----------------------------------|-------------------
-----------------------------------|-------------------
-0-0-0-0---------------------------|-0-0-0-0-----------
---------2-2-2-2-/4-4-4-4-2-2-2-2--|---------2-2-2-2---
 pm . . .  . . . . . . . . . . . .   pm . .  . . . .

-------|-----------------------------------|----------------
-------|-----------------------------------|----------------
-7-6-6-|-----------------------------------|----------------
-x-x-x-|-----------------------------------|----------------
-5-4-4-|-0-0-0-0---------------------------|----------------
-------|---------2-2-2-2-/4-4-4-4-2-2-2-2--|-0-0-0-0-2-2-2-2
         pm . . .  . . . . . . . . . . . .   pm. . . . . . .
-------|
-------|
-7-6-6-|
-x-x-x-|
-5-4-4-|
-------|

CHORUS
-------------|-------------|------|----------|-----|
-------------|-------------|------|----------|-----|
-2~-4~-------|-2~-4~-------|------|---7---6--|-----|
-2~-4~-0~-2~-|-2~-4~-0~-2~-|-4~-2-|--7-7-7-7-|-4-2-|
-0~-2~-0~-2~-|-0~-2~-0~-2~-|-4~-2-|-5---4----|-4-2-|
-------0~-2~-|-------0~-2~-|-4~-2-|----------|-4-2-|

PRE-VERSE
----------------------|-----------------------|
----------------------|-----------------------|
-6-7-7-6-7-6-6\-4-4-4-|-6-7-7-6-7-11-11\9-9-9-|
-x-x-x-x-x-x-x\-x-x-x-|-x-x-x-x-x-x---x\x-x-x-|
-4-5-5-4-5-4-4\-2-2-2-|-4-5-5-4-5-9---9\7-7-7-|
----------------------|-----------------------|

VERSE
-----------------------------------|-------------------
-----------------------------------|-------------------
-----------------------------------|-------------------
-----------------------------------|-------------------
-0-0-0-0---------------------------|-0-0-0-0-----------
---------2-2-2-2-/4-4-4-4-2-2-2-2--|---------2-2-2-2---
 pm . . .  . . . . . . . . . . . .   pm . .  . . . .
[ Tab from: http://www.guitartabs.cc/tabs/s/simple_plan/when_im_with_you_tab_ver_3.html ]
-------|-----------------------------------|----------------
-------|-----------------------------------|----------------
-7-6-6-|-----------------------------------|----------------
-x-x-x-|-----------------------------------|----------------
-5-4-4-|-0-0-0-0---------------------------|----------------
-------|---------2-2-2-2-/4-4-4-4-2-2-2-2--|-0-0-0-0-2-2-2-2
         pm . . .  . . . . . . . . . . . .   pm. . . . . . .
-------|
-------|
-7-6-6-|
-x-x-x-|
-5-4-4-|
-------|

CHORUS
-------------|-------------|------|----------|-----|
-------------|-------------|------|----------|-----|
-2~-4~-------|-2~-4~-------|------|---7---6--|-----|
-2~-4~-0~-2~-|-2~-4~-0~-2~-|-4~-2-|--7-7-7-7-|-4-2-|
-0~-2~-0~-2~-|-0~-2~-0~-2~-|-4~-2-|-5---4----|-4-2-|
-------0~-2~-|-------0~-2~-|-4~-2-|----------|-4-2-|

INTERLUDE
---------------------|---------------------|---------------
---------------------|---------------------|---------------
-6-7-7-6-7-6-9-7-6/7-|-6-7-7-6-7-6-7\6-7\6-|-6-7-7-6-7-6-9-
-x-x-x-x-x-x-x-x-x/x-|-x-x-x-x-x-x-x\x-x\x-|-x-x-x-x-x-x-x-
-4-5-5-4-5-4-7-5-4/5-|-4-5-5-4-5-4-5\4-5\4-|-4-5-5-4-5-4-7-
---------------------|---------------------|---------------

-------|------------------|
-------|------------------|
-------|------------------|
-x-x-x-|-x-x-x-x-xx-xx-xx-|
-5-4/5-|-5-5-5-7--9-10-12-|
-------|------------------|

---------------------|---------------------|---------------
---------------------|---------------------|---------------
-6-7-7-6-7-6-9-7-6/7-|-6-7-7-6-7-6-7\6-7\6-|-6-7-7-6-7-6-9-
-x-x-x-x-x-x-x-x-x/x-|-x-x-x-x-x-x-x\x-x\x-|-x-x-x-x-x-x-x-
-4-5-5-4-5-4-7-5-4/5-|-4-5-5-4-5-4-5\4-5\4-|-4-5-5-4-5-4-7-
---------------------|---------------------|---------------

-------|------------------|
-------|------------------|
-7-6-7-|-7-7-7-9-11-12-14-|
-x-x-x-|-x-x-x-x-xx-xx-xx-|
-5-4/5-|-5-5-5-7--9-10-12-|
-------|------------------|


----------------------|-----------------------------|
----------------------|-----------------------------|
-6-7-7-6-7-6-6\-4-4-4-|-6-7-7-10-10-9-9-7-76-6-4-2-|
-x-x-x-x-x-x-x\-x-x-x-|-x-x-x--x--x-x-x-x-x-x-x-x-x-|
-4-5-5-4-5-4-4\-2-2-2-|-4-5-5--9--9\7-7\5-5\4-4\2-0-|
----------------------|-----------------------------|

OUTRO CHORUS
-------------|-------------|-------------|-------------|
-------------|-------------|-------------|-------------|
-2~-4~-------|-2~-4~-------|-2~-4~-------|-2~-4~-------|
-2~-4~-0~-2~-|-2~-4~-0~-2~-|-2~-4~-0~-2~-|-2~-4~-0~-2~-|
-0~-2~-0~-2~-|-0~-2~-0~-2~-|-0~-2~-0~-2~-|-0~-2~-0~-2~-|
-------0~-2~-|-------0~-2~-|-------0~-2~-|-------0~-2~-|


-------------|-------------|
-------------|-------------|
-2~-4~-------|-2~-4~-------|
-2~-4~-0~-2~-|-2~-4~-0~-2~-|
-0~-2~-0~-2~-|-0~-2~-0~-2~-|
-------0~-2~-|-------0~-2~-|

END
----------|
----------|
-------2~-|
-4-0-2-2~-|
-4-0-2-0~-|
-4-0-2----|
Comments