Simple Plan - When Im With You Chords & Tabs

 

When Im With You Chords & Tabs

Simple Plan Chords & Tabs

Version: 2 Type: Tab 0 ratings
1 star 2 stars 3 stars 4 stars 5 stars
comments

When Im With You Tab

song: when i'm with you
band: simple plan
tabbed by jeff h.  
                   hey, this is one awesome band. sounds
like blink 182 and sum 41. anywayz enjoy this song.

intro: distortion
e--5--5-5--5--5----------------5--5-5--5--5-------------
b--5--5-5--5--5----------------5--5-5--5--5---5s7--5----
g--6--7-7--6--7---6s7--6-4-----6--7-7--6--7----------7-6
d--7--7-7--7--7------------7---7--7-7--7--7-------------
a--7--5-5--7--5----------------7--5-5--7--5-------------
e--5--5-5--5--5----------------5--5-5--5--5-------------

verse: distortion(palm muted)
e--------------------------------------
b--------------------------------------
g--7-7-7-7-----------------------------
d--7-7-7-7--7-7-7-7---9-9-9-9---7-7-7-7
a--5-5-5-5--7-7-7-7---9-9-9-9---7-7-7-7
e-----------5-5-5-5---7-7-7-7---5-5-5-5

e---------------------5--5-5
b---------------------5--5-5
g--7-7-7-7------------7--6-6
d--7-7-7-7--7-7-7-7---7--7-7
a--5-5-5-5--7-7-7-7---5--7-7
e-----------5-5-5-5---5--5-5
[ Tab from: http://www.guitartabs.cc/tabs/s/simple_plan/when_im_with_you_tab_ver_2.html ]
chorus: distortion
e-----------------------------------------------
b-----------------------------------------------
g--------------------------7-7-7-7-7---9-9-9-9-9   
d--7-7-7-7-7---9-9-9-9-9---7-7-7-7-7---9-9-9-9-9     2x
a--7-7-7-7-7---9-9-9-9-9---5-5-5-5-5---7-7-7-7-7
e--5-5-5-5-5---7-7-7-7-7------------------------

e-------------------------------------------
b-------------------------------------------
g----------------------------------7-------6
d--4-4-4-4-4-4-4---7-7-7-7-7----------------
a--4-4-4-4-4-4-4---7-7-7-7-7--5-5-----7-7---
e--2-2-2-2-2-2-2---5-5-5-5-5----------------

e---------------------------
b---------------------------
g---------------------------
d--4-4-4-4-4-4-4---7-7-7-7-7
a--4-4-4-4-4-4-4---7-7-7-7-7
e--2-2-2-2-2-2-2---5-5-5-5-5
repeat intro
repeat verse
repeat chorus

bridge:
e--5--5-5--5--5-------------
b--5--5-7--5--5-------------
g--6--7-7--6--7---6s7--6-4--  
d--7--7-7--7--7------------7   3x
a--7--5-5--7--5-------------
e--5--5-5--5--5-------------

e-------------------------
b----------------5--7s9-10
g--6-6-6--7-7-7-----------
d-------------------------
a-------------------------
e-------------------------
repeat chorus except change last part to this
e--------------------
b--7-7--5-5----------
g------------7-7--6-6
d--------------------
a--------------------
e--------------------
repeat chorus 










Comments