Simple Plan - Welcome To My Life Chords & Tabs

 

Welcome To My Life Chords & Tabs

Simple Plan Chords & Tabs

Version: 3 Type: Tab 0 ratings
1 star 2 stars 3 stars 4 stars 5 stars
comments

Welcome To My Life Tab

   
Hi, I'm not a very good tabber, but i did my best, this is a very kool song, 1 of my 
please rate it.

. = PM


  =================
  =Guitar1(Clean)== (Figure out the rythm)
  =================

   Feel like...  feel out...   Somehow you...   no one....

|--1-------------6-------------2----------------4-----------------|
|--2-------------6-------------2----------------4-----------------|
|--1-------------6-------------3----------------5-----------------|
|--3-------------8-------------4----------------6-----------------|
|--4-------------8-------------4----------------6-----------------|
|--1-------------6-------------2----------------4-----------------| 1X

  ================
  =Guitar2(Dis.)==
  ================

   . . D D U U . D  . . D D U U . D  . . D D U U . D  . . D D U U . D

|-----------------------------------------------------------------------|
|-----------------------------------------------------------------------|
|--6-6-6-6-6-6-6-6--3-3-3-3-3-3-3-3-------------------------------------|
|--6-6-6-4-4-4-4-4--3-3-3-3-3-3-3-3--4-4-4-4-4-4-4-4--6-6-6-6-6-6-6-6---|
|--4-4-4-4-4-4-4-4--1-1-1-1-1-1-1-1--4-4-4-4-4-4-4-4--6-6-6-6-6-6-6-6---|
|------------------------------------2-2-2-2-2-2-2-2--4-4-4-4-4-4-4-4---| 1X


  =================                               ================
  =Guitar2(Dis.) == Don't Strum                   =Guitar2(Dis.)==Let Ring
  =================                               ================


|--2--------------6--------------2--------------|--------------------------------|
|--2--------------6--------------2--------------|--------------------------------|
|--3--------------6--------------3--------------|--------------------------------|
|--4--------------8--------------4--------------|--------6-----------------------|
|--4--------------8--------------4--------------|--------6-----------------------|
|--2--------------6--------------2--------------|--------4-----------------------|

  =================
  =Guitar2(Dis.) ==
  =================

   .

|------------------------------------|
|------------------------------------|
|--6-6---3-3---------6-6-------------|
|--6-6---3-3---4-4---6-6---6-6-------|
|--4-4---1-1---4-4---4-4---6-6-------|
|--------------2-2---------4-4-------|
|                                    |
| =================                  |
| =Guitar1(Clean)==                  |       2X
| =================                  |
|                                    |
|--9--(6X)-----------------11--(2X)--|
|---9-------------------------9------|
|------------------------------------|
|------------------------------------|
|------------------------------------|
|------------------------------------|

  =================
  =Guitar2(Dis.) ==
  =================

   .                                                     .

|------------------------------------------------------------------|
|------------------------------------------------------------------|
|--6-6---3-3-3-3-----------6-6-6-6---------------------------------|
|--6-6---3-3-3-3--4-4-4-4--6-6-6-6--6-6-6-6--8-8-8-8-8-8-3-3/4~~~--|
|--4-4---1-1-1-1--4-4-4-4--4-4-4-4--6-6-6-6--8-8-8-8-8-8-3-3/4~~~--|
|-----------------2-2-2-2-----------4-4-4-4--6-6-6-6-6-6-1-1/2~~~--|

  =================
  =Guitar1(Clean)== (Figure out the rythm)
  =================


|---1---|
|---2---|
|---1---|
|---3---|
|---4---|
|---1---|


  ================
  =Guitar2(Dis.)==
  ================

   . . D D U U . D  . . D D U U . D  . . D D U U . D  . . D D U U . D

|-----------------------------------------------------------------------|
|-----------------------------------------------------------------------|
|--6-6-6-6-6-6-6-6--3-3-3-3-3-3-3-3-------------------------------------|
|--6-6-6-4-4-4-4-4--3-3-3-3-3-3-3-3--4-4-4-4-4-4-4-4--6-6-6-6-6-6-6-6---|
|--4-4-4-4-4-4-4-4--1-1-1-1-1-1-1-1--4-4-4-4-4-4-4-4--6-6-6-6-6-6-6-6---|
|------------------------------------2-2-2-2-2-2-2-2--4-4-4-4-4-4-4-4---| 2X
                                                              |         |
                                                              |=Guitar1=|
                                                              |         |
                                                              |-9-8-----|
                                                              |-----9-7-|
                                                              |---------|
                                                              |---------|
                                                              |---------|
                                                              |---------|

  =================                               ================
  =Guitar2(Dis.) == Don't Strum                   =Guitar2(Dis.)==
  =================                               ================

                                                         . . . . . .
[ Tab from: http://www.guitartabs.cc/tabs/s/simple_plan/welcome_to_my_life_tab_ver_3.html ]
|--2--------------6--------------2--------------|--------------------------------|
|--2--------------6--------------2--------------|--------------------------------|
|--3--------------6--------------3--------------|--------------------------------|
|--4--------------8--------------4--------------|--------6-6-6-6-6-6-------------|
|--4--------------8--------------4--------------|--------6-6-6-6-6-6-------------|
|--2--------------6--------------2--------------|--------4-4-4-4-4-4-------------|
|                                               |
| =================                             |
| =Guitar1(Clean)==                             |
| =================                             |
|                                               |
|-----9-8--------------9-8------------9/11\9----|
|---------9-11------------9-7---------------10\8|
|-----------------------------------------------|
|-----------------------------------------------|
|-----------------------------------------------|
|-----------------------------------------------|


  =================
  =Guitar2(Dis.) ==
  =================

   .

|------------------------------------|
|------------------------------------|
|--6-6---3-3---------6-6-------------|
|--6-6---3-3---4-4---6-6---6-6-------|
|--4-4---1-1---4-4---4-4---6-6-------|
|--------------2-2---------4-4-------|
|                                    |
| =================                  |
| =Guitar1(Clean)==                  |       2X
| =================                  |
|                                    |
|--9--(6X)-----------------11--(2X)--|
|---9-------------------------9------|
|------------------------------------|
|------------------------------------|
|------------------------------------|
|------------------------------------|

  =================
  =Guitar2(Dis.) ==
  =================

   .                                                     .

|------------------------------------------------------------------|
|------------------------------------------------------------------|
|--6-6---3-3-3-3-----------6-6-6-6---------------------------------|
|--6-6---3-3-3-3--4-4-4-4--6-6-6-6--6-6-6-6--8-8-8-8-8-8-3-3/4~~~--|
|--4-4---1-1-1-1--4-4-4-4--4-4-4-4--6-6-6-6--8-8-8-8-8-8-3-3/4~~~--|
|-----------------2-2-2-2-----------4-4-4-4--6-6-6-6-6-6-1-1/2~~~--|

  =================
  =Guitar1(Clean)== (Figure out the rythm)
  =================


|---1------1---|
|---2------2---|
|---1------1---|
|---3------3---|
|---4------4---|
|---1------1---|

  =================
  =Guitar2(Dis.) ==
  =================

      .             .              .             .

|----------------------------------------------------------------------|
|----------------------------------------------------------------------|
|-------------------6-6--3-3--33-3-6-6-----------6-6-------------------|
|--11\6-6-4-4--44-4-6-6--3-3--33-3-6-6-4-4--44-4-6-6-6-6-6-6-6-6-6-6---|
|--11\6-6-4-4--44-4-4-4--1-1--11-1-4-4-4-4--44-4-4-4-6-6-6-6-6-6-6-6---|
|--9-\4-4-2-2--22-2--------------------2-2--22-2-----4-4-4-4-4-4-4-4---|
                                                                       |
                                                         =Guitar1=     |
                                                     |-----------------|
                                                     |----4-------4----|
                                                     |--66-6----66-6---|
                                                     |-----------------|
                                                     |-----------------|
                                                     |-----------------|

  =================
  =Guitar2(Dis.) ==
  =================

             .              .                .

|-------------------------------------------------------|
|-------------------------------------------------------|
|------------6-6--3-3--33-3-6-6--8-8-8-8-8-8------------|
|--4-4--44-4-6-6--3-3--33-3-6-6--8-8-8-8-8-8-3-3/4~~~---|
|--4-4--44-4-4-4--1-1--11-1-4-4--6-6-6-6-6-6-3-3/4~~~---|
|--2-2--22-2---------------------------------1-1/2~~~---|

  =================
  =Guitar1(Clean)==
  =================


|--6-----2-----4-----2--|
|--6-----2-----4-----2--|
|--6-----3-----5-----3--|
|--8-----4-----6-----4--|
|--8-----4-----6-----4--|
|--6-----2-----4-----2--| 2X


  =================
  =Guitar2(Dis.) ==
  =================


   .

|------------------------------------|
|------------------------------------|
|--6-6---3-3---------6-6-------------|
|--6-6---3-3---4-4---6-6---6-6-------|
|--4-4---1-1---4-4---4-4---6-6-------|
|--------------2-2---------4-4-------|
|                                    |
| =================                  |
| =Guitar1(Clean)==                  |       1X
| =================                  |
|                                    |
|--9--(6X)-----------------11--(2X)--|
|---9-------------------------9------|
|------------------------------------|
|------------------------------------|
|------------------------------------|
|------------------------------------|

               .

|------------------------------------|
|------------------------------------|
|--8-8-8-8-8-8-----------------------|
|--8-8-8-8-8-8-3-3/-4-4-4-4-4-4-4-4--|
|--6-6-6-6-6-6-3-3/-4-4-4-4-4-4-4-4--|
|--------------1-1/-2-2-2-2-2-2-2-2--|

   .

|------------------------------------|
|------------------------------------|
|--6-6---3-3---------6-6-------------|
|--6-6---3-3---4-4---6-6---6-6-------|
|--4-4---1-1---4-4---4-4---6-6-------|
|--------------2-2---------4-4-------|
|                                    |
| =================                  |
| =Guitar1(Clean)==                  |       3X (2nd and 3rd wizout Guitar1)
| =================                  |
|                                    |
|--9--(6X)-----------------11--(2X)--|
|---9-------------------------9------|
|------------------------------------|
|------------------------------------|
|------------------------------------|
|------------------------------------|

               .

|------------------------------------|
|------------------------------------|
|--8-8-8-8-8-8-----------------------|
|--8-8-8-8-8-8-3-3/-4-4-4-4-4-4-4-4--|
|--6-6-6-6-6-6-3-3/-4-4-4-4-4-4-4-4--|
|--------------1-1/-2-2-2-2-2-2-2-2--|

  =================
  =Guitar1(Clean)==  (Figure out the rythm)
  =================

|--1-----6-----2-----4-----1~~~~~-----|
|--2-----6-----2-----4-----2~~~~~-----|
|--1-----6-----3-----5-----1~~~~~-----|
|--3-----8-----4-----6-----3~~~~~-----|
|--4-----8-----4-----6-----4~~~~~-----|
|--1-----6-----2-----4-----1~~~~~-----|


That's it. any questions or comments plz send to me (occulttongue@hotmail.com)
Comments