Simple Plan - Untitled Chords & Tabs

 

Untitled Chords & Tabs

Simple Plan Chords & Tabs

Version: 5 Type: Tab 0 ratings
1 star 2 stars 3 stars 4 stars 5 stars
comments

Untitled Tab

Untitled Tab
By: Simple Plan
Album "still not getting any..."
Tuning: Standard
Tabbed By: D I D S

INTRO:

e-----------------2--3----------|
B---------3---------------------|
G-----2------2------------------|     4x
D--0----------------------------|
A-------------------------------|
E-------------------------------|

VERSE:


e-----------------1----------------|
B---------3---------2--------------|
G-----2------2---------------------|      2x
D--0-------------------------------|
A----------------------------------|
E----------------------------------|

e-----------------2--3------------|
B---------3-----------------------|
G-----2------2--------------------|      2x
D--0------------------------------|
A---------------------------------|
E---------------------------------|

e-----------------1----------------|
B---------3---------2--------------|
G-----2------2---------------------|      2x
D--0-------------------------------|
A----------------------------------|
E----------------------------------|

e-------------------2--3------------------21---------|
B---------3------------------------3------------------|
G-----2------2----------------2------2----------------|
D--0-----------------------0--------------------------|
A-----------------------------------------------------|
E-----------------------------------------------------|

REFREN:


e---------2-----------------|
B-----3------3--------------|
G---------------------------|    2x
D--0------------------------|
A---------------------------|
E---------------------------|

e---------2--3----------|
B-----3-----------------|
G-----------------------|    2x
D--0--------------------|
A-----------------------|
E-----------------------|
[ Tab from: http://www.guitartabs.cc/tabs/s/simple_plan/untitled_tab_ver_5.html ]
e---------2---3------------2---3---1------1-------|
B-----3---------------3---------------------------|
G-------------------------------------------------|
D--0--------------0-------------------------------|
A-------------------------------------------------|
E-------------------------------------------------|

CHORUS:

e------------2-----3----------|
B------3----------------------|
G----2------------------------|
D--0-----0---0----------------|
A-----------------------------|
E-----------------------------|


e------------1---------------|
B------3-----------2---------|
G----2-----------------------|    2x
D--0-----0---0---------------|
A----------------------------|
E----------------------------|


e------------2--1--0---------|
B------3---------------------|
G----2-----------------------|
D--0-----0-------------------|
A----------------------------|
E----------------------------|
INTRO:

e-----------------2--3------------------------|
B---------3-----------------------------------|
G-----2------2--------------------------------|     2x
D--0------------------------------------------|
A---------------------------------------------|
E---------------------------------------------|


VERSE:
REFREN:
CHPRUS:


INTRO:

e-----------------2--1------------------------|
B---------3-----------------------------------|
G-----2------2--------------------------------|     2x
D--0------------------------------------------|
A---------------------------------------------|
E---------------------------------------------|

CHORUS:

SOLO:
e----------------------------------------------------6h7p6------------|
A-----------------------------------9b(11)-7h9p7~---------7~----------|
D------------------------------6-8----------------------------8-6~----|
G----1s3-6b(8)-4-4s6~--4-6-6s8----------------------------------------|
B-2~------------------------------------------------------------------|
E---------------------------------------------------------------------|


CHORUS:

END:


NOTE! Nasa D and Dm lang yan!
      Ang Easy! Daba?
      Kong may comment. Txt me na lang at 19186868760 or David_jan@yahoo.com
      Hi nga pala sa lahat ng Student ng STI Cotabato!

      JoY! 4 You
Comments