Simple Plan - Thank You Chords & Tabs

 

Thank You Chords & Tabs

Simple Plan Chords & Tabs

Version: 2 Type: Tab 0 ratings
1 star 2 stars 3 stars 4 stars 5 stars
comments

Thank You Tab

Yo people, here's the intro, pretty sure its correct, cant be arsed to do the rest :P
[ Tab from: http://www.guitartabs.cc/tabs/s/simple_plan/thank_you_tab_ver_2.html ]
E|-----------------------------------|
B|-----------------------------------|
G|--11-10-8-10-8-6------8-10-6666----|
D|---X--X-X--X-X-X--X2--X--X-XXXX-x2-|
A|---9--8-6--8-6-4------8--8-4444----|
E|-----------------------------------|

Repeat the above again but end on...

E|-----------------|
B|-----------------|
G|--8-10-8-10-8-6--|
D|--x--x-x--x-x-x--|
A|--6--8-6--8-6-4--|
E|-----------------|

some1 else can do the rest
Comments