Simple Plan - Tell Me Chords & Tabs

 

Tell Me Chords & Tabs

Simple Plan Chords & Tabs

Version: 1 Type: Tab 0 ratings
1 star 2 stars 3 stars 4 stars 5 stars
comments

Tell Me Tab

----------------------------------------------------------------------------
                SIMPLE PLAN     -     TELL ME
----------------------------------------------------------------------------
not sure if its exact....but give it a go ..u will figure it out

INTRO~
[ Tab from: http://www.guitartabs.cc/tabs/s/simple_plan/tell_me_tab.html ]
e------0-----5----0-----5----------1---------0--------1-------------------|
b------------------------0---0--------------------------------------------|
g-------------------------------------------------------------------------|
d-------------------------------------------------------------------------|
a-------------------------------------------------------------------------|
E-------------------------------------------------------------------------|

VERSE
e-------------------------------------------------------------------------|
b-------------------------------------------------------------------------|
g-------------------------------------------------------------------------|
d---------9-------9-------------------------------------------------------|
a--------7--------7---------9---9-------------7-----7-----8----8----------|
E--------------------------7-----7-------------5-----5----6-----6---------|

power chords....parm mute.....(punk rock style)
thats all i know CHEERS    SAMMI
Comments