Simple Plan - Perfect World Chords & Tabs

 

Perfect World Chords & Tabs

Simple Plan Chords & Tabs

Version: 6 Type: Tab 0 ratings
1 star 2 stars 3 stars 4 stars 5 stars
comments

Perfect World Tab

   
----------------------------------------------------------------------------			     
Perfect World - Simple Plan
----------------------------------------------------------------------------

Tabbed by: Tim
Email: hippopotamus7@cox.net

Tuning: Believe it or not, this NOT tuned down a half step. e B G D A E

Intro:
e|-------------------------------------|
B|-------------------------------------|
G|------0-------0----------------------|
D|----1---1---1---1----1-3-1---1-3-1---| 2x
A|---3---------------1--------1--------|
E|----------4--------------------------|

e|--------------------------------------------------|
B|--------------------------------------------------|
G|---------12----------12----8-10-12-10-8----7/8\7--|
D|---10-10-x-----10-10-x-----x-x--x--x--x----x/x\x--| 2x
A|---x--x--10----x--x--10----6-8--10-8--6----5/6\5--|
E|---8--8--------8--8-------------------------------|

Verse:
e|-------------------------------------|
B|-------------------------------------|
G|------0-------0----------------------|
D|----1---1---1---1----1-3-1---1-3-1---| (as long as needed)
A|---3---------------1--------1--------|
E|----------4--------------------------|

Chorus:
        C5
e|------------|
B|------------|
G|------------|
D|------5-----|
A|------3-----|
E|------------|

       G#5
e|------------|
B|------------|
G|------------|
D|------------|
A|------6-----|
E|------4-----|

      D#5
e|------------|
B|------------|
G|------------|
D|-----8------|
A|-----6------|
E|------------|

       Bb5
e|------------|
B|------------|
G|------------|
D|------------|
A|-----8------|
E|-----6------|

After chorus:
e|--------------------------------------------------|
B|--------------------------------------------------|
G|---------12----------12----8-10-12-10-8----7/8\7--|
D|---10-10-x-----10-10-x-----x-x--x--x--x----x/x\x--| 2x
A|---x--x--10----x--x--10----6-8--10-8--6----5/6\5--|
E|---8--8--------8--8-------------------------------|
[ Tab from: http://www.guitartabs.cc/tabs/s/simple_plan/perfect_world_tab_ver_6.html ]
Verse:
e|-------------------------------------|
B|-------------------------------------|
G|------0-------0----------------------|
D|----1---1---1---1----1-3-1---1-3-1---| (as long as needed)
A|---3---------------1--------1--------|
E|----------4--------------------------|

Chorus:
        C5
e|------------|
B|------------|
G|------------|
D|------5-----|
A|------3-----|
E|------------|

       G#5
e|------------|
B|------------|
G|------------|
D|------------|
A|------6-----|
E|------4-----|

      D#5
e|------------|
B|------------|
G|------------|
D|-----8------|
A|-----6------|
E|------------|

       Bb5
e|------------|
B|------------|
G|------------|
D|------------|
A|-----8------|
E|-----6------|

          After chorus:
          e|--------------------------------------------------|
          B|--------------------------------------------------|
          G|---------12----------12----8-10-12-10-8----7/8\7--|
          D|---10-10-x-----10-10-x-----x-x--x--x--x----x/x\x--| 2x
          A|---x--x--10----x--x--10----6-8--10-8--6----5/6\5--|
          E|---8--8--------8--8-------------------------------|
"let you gooooo"

Then the part where Pierre Bouvier sings "don't know what i should do now"
e|-------------------------------------|
B|-------------------------------------|
G|------0-------0----------------------|
D|----1---1---1---1----1-3-1---1-3-1---| (as long as needed)
A|---3---------------1--------1--------|
E|----------4--------------------------|

After chorus:
e|--------------------------------------------------|
B|--------------------------------------------------|
G|---------12----------12----8-10-12-10-8----7/8\7--|
D|---10-10-x-----10-10-x-----x-x--x--x--x----x/x\x--| 2x
A|---x--x--10----x--x--10----6-8--10-8--6----5/6\5--|
E|---8--8--------8--8-------------------------------|

End with:       
e|------------|
B|------------|
G|------------|
D|---10-------|
A|---x--------|
E|---8--------|

This is an AWESOME song. This is only my second tab, so please send feedback.



| /  slide up
| \  slide down
| h  hammer-on
| p  pull-off
| ~  vibrato
| +  harmonic
| x  Mute note

 Carpe yesterday --Tim
============================================================================
Comments